ISO-10303-21;
HEADER;
FILE_DESCRIPTION(('Creo Elements/Direct Modeling STEP Export'),'2;1');
FILE_NAME(
'//KR-CAD2/PhoenixTemp/karl.letzgus/Konvertierung/33.0125.1_Klemmschiene
nprofil-MMS-33_15x6,4x3000mm.stp','2022-03-18T13:57:32',(''),(''),
'PTC Creo Elements/Direct Modeling STEP processor for AP214 (Solid Model
)',
'PTC Creo Elements/Direct Modeling 19.0C  15-Aug-2015 (C) Parametric Tec
hnology GmbH','');
FILE_SCHEMA(('AUTOMOTIVE_DESIGN { 1 0 10303 214 1 1 1 1 }'));
ENDSEC;
DATA;
#10=CARTESIAN_POINT('',(0.,0.,-55.));
#20=DIRECTION('',(0.,0.,1.));
#30=DIRECTION('',(1.,0.,0.));
#40=AXIS2_PLACEMENT_3D('',#10,#20,#30);
#50=PLANE('',#40);
#60=CARTESIAN_POINT('',(1.5,0.,-55.));
#70=DIRECTION('',(0.707106781186548,-0.707106781186548,0.));
#80=VECTOR('',#70,1.);
#90=LINE('',#60,#80);
#100=CARTESIAN_POINT('',(0.,1.5,-55.));
#110=VERTEX_POINT('',#100);
#120=CARTESIAN_POINT('',(1.5,0.,-55.));
#130=VERTEX_POINT('',#120);
#140=EDGE_CURVE('',#110,#130,#90,.T.);
#150=ORIENTED_EDGE('',*,*,#140,.F.);
#160=CARTESIAN_POINT('',(0.,0.,-55.));
#170=DIRECTION('',(1.,0.,0.));
#180=VECTOR('',#170,1.);
#190=LINE('',#160,#180);
#200=CARTESIAN_POINT('',(13.5,8.88178419700125E-16,-55.));
#210=VERTEX_POINT('',#200);
#220=EDGE_CURVE('',#130,#210,#190,.T.);
#230=ORIENTED_EDGE('',*,*,#220,.F.);
#240=CARTESIAN_POINT('',(13.5,0.,-55.));
#250=DIRECTION('',(-0.707106781186548,-0.707106781186548,0.));
#260=VECTOR('',#250,1.);
#270=LINE('',#240,#260);
#280=CARTESIAN_POINT('',(15.,1.5,-55.));
#290=VERTEX_POINT('',#280);
#300=EDGE_CURVE('',#290,#210,#270,.T.);
#310=ORIENTED_EDGE('',*,*,#300,.T.);
#320=CARTESIAN_POINT('',(15.,0.,-55.));
#330=DIRECTION('',(3.62521803959235E-16,1.,0.));
#340=VECTOR('',#330,1.);
#350=LINE('',#320,#340);
#360=CARTESIAN_POINT('',(15.,5.,-55.));
#370=VERTEX_POINT('',#360);
#380=EDGE_CURVE('',#290,#370,#350,.T.);
#390=ORIENTED_EDGE('',*,*,#380,.F.);
#400=CARTESIAN_POINT('',(15.,5.,-55.));
#410=DIRECTION('',(-1.,0.,0.));
#420=VECTOR('',#410,1.);
#430=LINE('',#400,#420);
#440=CARTESIAN_POINT('',(11.5,5.,-55.));
#450=VERTEX_POINT('',#440);
#460=EDGE_CURVE('',#370,#450,#430,.T.);
#470=ORIENTED_EDGE('',*,*,#460,.F.);
#480=CARTESIAN_POINT('',(11.5,4.9,-55.));
#490=DIRECTION('',(0.,1.,0.));
#500=VECTOR('',#490,1.);
#510=LINE('',#480,#500);
#520=CARTESIAN_POINT('',(11.5,6.5,-55.));
#530=VERTEX_POINT('',#520);
#540=EDGE_CURVE('',#450,#530,#510,.T.);
#550=ORIENTED_EDGE('',*,*,#540,.F.);
#560=CARTESIAN_POINT('',(11.5,6.5,-55.));
#570=DIRECTION('',(-1.,-3.33066907387547E-16,0.));
#580=VECTOR('',#570,1.);
#590=LINE('',#560,#580);
#600=CARTESIAN_POINT('',(3.5,6.5,-55.));
#610=VERTEX_POINT('',#600);
#620=EDGE_CURVE('',#530,#610,#590,.T.);
#630=ORIENTED_EDGE('',*,*,#620,.F.);
#640=CARTESIAN_POINT('',(3.5,6.4,-55.));
#650=DIRECTION('',(0.,-1.,0.));
#660=VECTOR('',#650,1.);
#670=LINE('',#640,#660);
#680=CARTESIAN_POINT('',(3.5,5.,-55.));
#690=VERTEX_POINT('',#680);
#700=EDGE_CURVE('',#610,#690,#670,.T.);
#710=ORIENTED_EDGE('',*,*,#700,.F.);
#720=CARTESIAN_POINT('',(0.,5.,-55.));
#730=DIRECTION('',(1.,0.,0.));
#740=VECTOR('',#730,1.);
#750=LINE('',#720,#740);
#760=CARTESIAN_POINT('',(0.,5.,-55.));
#770=VERTEX_POINT('',#760);
#780=EDGE_CURVE('',#770,#690,#750,.T.);
#790=ORIENTED_EDGE('',*,*,#780,.T.);
#800=CARTESIAN_POINT('',(0.,0.,-55.));
#810=DIRECTION('',(0.,1.,0.));
#820=VECTOR('',#810,1.);
#830=LINE('',#800,#820);
#840=EDGE_CURVE('',#110,#770,#830,.T.);
#850=ORIENTED_EDGE('',*,*,#840,.T.);
#860=EDGE_LOOP('',(#850,#790,#710,#630,#550,#470,#390,#310,#230,#150));
#870=FACE_OUTER_BOUND('',#860,.T.);
#880=ADVANCED_FACE('',(#870),#50,.F.);
#890=CARTESIAN_POINT('',(0.,0.,45.));
#900=DIRECTION('',(0.,0.,1.));
#910=DIRECTION('',(1.,0.,0.));
#920=AXIS2_PLACEMENT_3D('',#890,#900,#910);
#930=PLANE('',#920);
#940=CARTESIAN_POINT('',(1.5,0.,45.));
#950=DIRECTION('',(0.707106781186548,-0.707106781186548,0.));
#960=VECTOR('',#950,1.);
#970=LINE('',#940,#960);
#980=CARTESIAN_POINT('',(0.,1.5,45.));
#990=VERTEX_POINT('',#980);
#1000=CARTESIAN_POINT('',(1.5,0.,45.));
#1010=VERTEX_POINT('',#1000);
#1020=EDGE_CURVE('',#990,#1010,#970,.T.);
#1030=ORIENTED_EDGE('',*,*,#1020,.T.);
#1040=CARTESIAN_POINT('',(0.,0.,45.));
#1050=DIRECTION('',(0.,1.,0.));
#1060=VECTOR('',#1050,1.);
#1070=LINE('',#1040,#1060);
#1080=CARTESIAN_POINT('',(0.,5.,45.));
#1090=VERTEX_POINT('',#1080);
#1100=EDGE_CURVE('',#990,#1090,#1070,.T.);
#1110=ORIENTED_EDGE('',*,*,#1100,.F.);
#1120=CARTESIAN_POINT('',(0.,5.,45.));
#1130=DIRECTION('',(1.,0.,0.));
#1140=VECTOR('',#1130,1.);
#1150=LINE('',#1120,#1140);
#1160=CARTESIAN_POINT('',(3.5,5.,45.));
#1170=VERTEX_POINT('',#1160);
#1180=EDGE_CURVE('',#1090,#1170,#1150,.T.);
#1190=ORIENTED_EDGE('',*,*,#1180,.F.);
#1200=CARTESIAN_POINT('',(3.5,6.4,45.));
#1210=DIRECTION('',(0.,-1.,0.));
#1220=VECTOR('',#1210,1.);
#1230=LINE('',#1200,#1220);
#1240=CARTESIAN_POINT('',(3.5,6.5,45.));
#1250=VERTEX_POINT('',#1240);
#1260=EDGE_CURVE('',#1250,#1170,#1230,.T.);
#1270=ORIENTED_EDGE('',*,*,#1260,.T.);
#1280=CARTESIAN_POINT('',(11.5,6.5,45.));
#1290=DIRECTION('',(-1.,-3.33066907387547E-16,0.));
#1300=VECTOR('',#1290,1.);
#1310=LINE('',#1280,#1300);
#1320=CARTESIAN_POINT('',(11.5,6.5,45.));
#1330=VERTEX_POINT('',#1320);
#1340=EDGE_CURVE('',#1330,#1250,#1310,.T.);
#1350=ORIENTED_EDGE('',*,*,#1340,.T.);
#1360=CARTESIAN_POINT('',(11.5,4.9,45.));
#1370=DIRECTION('',(0.,1.,0.));
#1380=VECTOR('',#1370,1.);
#1390=LINE('',#1360,#1380);
#1400=CARTESIAN_POINT('',(11.5,5.,45.));
#1410=VERTEX_POINT('',#1400);
#1420=EDGE_CURVE('',#1410,#1330,#1390,.T.);
#1430=ORIENTED_EDGE('',*,*,#1420,.T.);
#1440=CARTESIAN_POINT('',(15.,5.,45.));
#1450=DIRECTION('',(-1.,0.,0.));
#1460=VECTOR('',#1450,1.);
#1470=LINE('',#1440,#1460);
#1480=CARTESIAN_POINT('',(15.,5.,45.));
#1490=VERTEX_POINT('',#1480);
#1500=EDGE_CURVE('',#1490,#1410,#1470,.T.);
#1510=ORIENTED_EDGE('',*,*,#1500,.T.);
#1520=CARTESIAN_POINT('',(15.,0.,45.));
#1530=DIRECTION('',(3.62521803959235E-16,1.,0.));
#1540=VECTOR('',#1530,1.);
#1550=LINE('',#1520,#1540);
#1560=CARTESIAN_POINT('',(15.,1.5,45.));
#1570=VERTEX_POINT('',#1560);
#1580=EDGE_CURVE('',#1570,#1490,#1550,.T.);
#1590=ORIENTED_EDGE('',*,*,#1580,.T.);
#1600=CARTESIAN_POINT('',(13.5,0.,45.));
#1610=DIRECTION('',(-0.707106781186548,-0.707106781186548,0.));
#1620=VECTOR('',#1610,1.);
#1630=LINE('',#1600,#1620);
#1640=CARTESIAN_POINT('',(13.5,1.74860126378462E-15,45.));
#1650=VERTEX_POINT('',#1640);
#1660=EDGE_CURVE('',#1570,#1650,#1630,.T.);
#1670=ORIENTED_EDGE('',*,*,#1660,.F.);
#1680=CARTESIAN_POINT('',(0.,0.,45.));
#1690=DIRECTION('',(1.,0.,0.));
#1700=VECTOR('',#1690,1.);
#1710=LINE('',#1680,#1700);
#1720=EDGE_CURVE('',#1010,#1650,#1710,.T.);
#1730=ORIENTED_EDGE('',*,*,#1720,.T.);
#1740=EDGE_LOOP('',(#1730,#1670,#1590,#1510,#1430,#1350,#1270,#1190,
#1110,#1030));
#1750=FACE_OUTER_BOUND('',#1740,.T.);
#1760=ADVANCED_FACE('',(#1750),#930,.T.);
#1770=CARTESIAN_POINT('',(15.,0.,0.));
#1780=DIRECTION('',(-0.,-1.,-0.));
#1790=DIRECTION('',(-1.,0.,0.));
#1800=AXIS2_PLACEMENT_3D('',#1770,#1780,#1790);
#1810=PLANE('',#1800);
#1820=ORIENTED_EDGE('',*,*,#1720,.F.);
#1830=CARTESIAN_POINT('',(13.5,0.,-7.49999999999999));
#1840=DIRECTION('',(0.,0.,1.));
#1850=VECTOR('',#1840,1.);
#1860=LINE('',#1830,#1850);
#1870=EDGE_CURVE('',#210,#1650,#1860,.T.);
#1880=ORIENTED_EDGE('',*,*,#1870,.T.);
#1890=ORIENTED_EDGE('',*,*,#220,.T.);
#1900=CARTESIAN_POINT('',(1.5,0.,-7.49999999999999));
#1910=DIRECTION('',(0.,0.,1.));
#1920=VECTOR('',#1910,1.);
#1930=LINE('',#1900,#1920);
#1940=EDGE_CURVE('',#130,#1010,#1930,.T.);
#1950=ORIENTED_EDGE('',*,*,#1940,.F.);
#1960=EDGE_LOOP('',(#1950,#1890,#1880,#1820));
#1970=FACE_OUTER_BOUND('',#1960,.T.);
#1980=ADVANCED_FACE('',(#1970),#1810,.T.);
#1990=CARTESIAN_POINT('',(15.,4.9,0.));
#2000=DIRECTION('',(1.,-3.62521803959235E-16,0.));
#2010=DIRECTION('',(-3.62521803959235E-16,-1.,0.));
#2020=AXIS2_PLACEMENT_3D('',#1990,#2000,#2010);
#2030=PLANE('',#2020);
#2040=CARTESIAN_POINT('',(15.,1.5,-7.49999999999999));
#2050=DIRECTION('',(0.,0.,1.));
#2060=VECTOR('',#2050,1.);
#2070=LINE('',#2040,#2060);
#2080=EDGE_CURVE('',#290,#1570,#2070,.T.);
#2090=ORIENTED_EDGE('',*,*,#2080,.F.);
#2100=ORIENTED_EDGE('',*,*,#1580,.F.);
#2110=CARTESIAN_POINT('',(15.,5.,0.));
#2120=DIRECTION('',(0.,0.,1.));
#2130=VECTOR('',#2120,1.);
#2140=LINE('',#2110,#2130);
#2150=EDGE_CURVE('',#370,#1490,#2140,.T.);
#2160=ORIENTED_EDGE('',*,*,#2150,.T.);
#2170=ORIENTED_EDGE('',*,*,#380,.T.);
#2180=EDGE_LOOP('',(#2170,#2160,#2100,#2090));
#2190=FACE_OUTER_BOUND('',#2180,.T.);
#2200=ADVANCED_FACE('',(#2190),#2030,.T.);
#2210=CARTESIAN_POINT('',(11.5,5.,0.));
#2220=DIRECTION('',(-0.,1.,0.));
#2230=DIRECTION('',(1.,0.,0.));
#2240=AXIS2_PLACEMENT_3D('',#2210,#2220,#2230);
#2250=PLANE('',#2240);
#2260=ORIENTED_EDGE('',*,*,#2150,.F.);
#2270=ORIENTED_EDGE('',*,*,#1500,.F.);
#2280=CARTESIAN_POINT('',(11.5,5.,0.));
#2290=DIRECTION('',(0.,0.,1.));
#2300=VECTOR('',#2290,1.);
#2310=LINE('',#2280,#2300);
#2320=EDGE_CURVE('',#450,#1410,#2310,.T.);
#2330=ORIENTED_EDGE('',*,*,#2320,.T.);
#2340=ORIENTED_EDGE('',*,*,#460,.T.);
#2350=EDGE_LOOP('',(#2340,#2330,#2270,#2260));
#2360=FACE_OUTER_BOUND('',#2350,.T.);
#2370=ADVANCED_FACE('',(#2360),#2250,.T.);
#2380=CARTESIAN_POINT('',(11.5,6.4,0.));
#2390=DIRECTION('',(1.,0.,0.));
#2400=DIRECTION('',(0.,-1.,0.));
#2410=AXIS2_PLACEMENT_3D('',#2380,#2390,#2400);
#2420=PLANE('',#2410);
#2430=ORIENTED_EDGE('',*,*,#2320,.F.);
#2440=ORIENTED_EDGE('',*,*,#1420,.F.);
#2450=CARTESIAN_POINT('',(11.5,6.5,0.));
#2460=DIRECTION('',(0.,0.,1.));
#2470=VECTOR('',#2460,1.);
#2480=LINE('',#2450,#2470);
#2490=EDGE_CURVE('',#530,#1330,#2480,.T.);
#2500=ORIENTED_EDGE('',*,*,#2490,.T.);
#2510=ORIENTED_EDGE('',*,*,#540,.T.);
#2520=EDGE_LOOP('',(#2510,#2500,#2440,#2430));
#2530=FACE_OUTER_BOUND('',#2520,.T.);
#2540=ADVANCED_FACE('',(#2530),#2420,.T.);
#2550=CARTESIAN_POINT('',(3.5,6.5,0.));
#2560=DIRECTION('',(-3.33066907387547E-16,1.,0.));
#2570=DIRECTION('',(1.,3.33066907387547E-16,0.));
#2580=AXIS2_PLACEMENT_3D('',#2550,#2560,#2570);
#2590=PLANE('',#2580);
#2600=ORIENTED_EDGE('',*,*,#2490,.F.);
#2610=ORIENTED_EDGE('',*,*,#1340,.F.);
#2620=CARTESIAN_POINT('',(3.5,6.5,0.));
#2630=DIRECTION('',(0.,0.,1.));
#2640=VECTOR('',#2630,1.);
#2650=LINE('',#2620,#2640);
#2660=EDGE_CURVE('',#610,#1250,#2650,.T.);
#2670=ORIENTED_EDGE('',*,*,#2660,.T.);
#2680=ORIENTED_EDGE('',*,*,#620,.T.);
#2690=EDGE_LOOP('',(#2680,#2670,#2610,#2600));
#2700=FACE_OUTER_BOUND('',#2690,.T.);
#2710=ADVANCED_FACE('',(#2700),#2590,.T.);
#2720=CARTESIAN_POINT('',(3.5,4.9,0.));
#2730=DIRECTION('',(-1.,0.,0.));
#2740=DIRECTION('',(0.,1.,0.));
#2750=AXIS2_PLACEMENT_3D('',#2720,#2730,#2740);
#2760=PLANE('',#2750);
#2770=ORIENTED_EDGE('',*,*,#2660,.F.);
#2780=ORIENTED_EDGE('',*,*,#1260,.F.);
#2790=CARTESIAN_POINT('',(3.5,5.,0.));
#2800=DIRECTION('',(0.,0.,1.));
#2810=VECTOR('',#2800,1.);
#2820=LINE('',#2790,#2810);
#2830=EDGE_CURVE('',#690,#1170,#2820,.T.);
#2840=ORIENTED_EDGE('',*,*,#2830,.T.);
#2850=ORIENTED_EDGE('',*,*,#700,.T.);
#2860=EDGE_LOOP('',(#2850,#2840,#2780,#2770));
#2870=FACE_OUTER_BOUND('',#2860,.T.);
#2880=ADVANCED_FACE('',(#2870),#2760,.T.);
#2890=CARTESIAN_POINT('',(0.,5.,0.));
#2900=DIRECTION('',(-0.,1.,0.));
#2910=DIRECTION('',(1.,0.,0.));
#2920=AXIS2_PLACEMENT_3D('',#2890,#2900,#2910);
#2930=PLANE('',#2920);
#2940=ORIENTED_EDGE('',*,*,#2830,.F.);
#2950=ORIENTED_EDGE('',*,*,#1180,.T.);
#2960=CARTESIAN_POINT('',(0.,5.,0.));
#2970=DIRECTION('',(0.,0.,1.));
#2980=VECTOR('',#2970,1.);
#2990=LINE('',#2960,#2980);
#3000=EDGE_CURVE('',#770,#1090,#2990,.T.);
#3010=ORIENTED_EDGE('',*,*,#3000,.T.);
#3020=ORIENTED_EDGE('',*,*,#780,.F.);
#3030=EDGE_LOOP('',(#3020,#3010,#2950,#2940));
#3040=FACE_OUTER_BOUND('',#3030,.T.);
#3050=ADVANCED_FACE('',(#3040),#2930,.T.);
#3060=CARTESIAN_POINT('',(0.,0.,0.));
#3070=DIRECTION('',(-1.,0.,0.));
#3080=DIRECTION('',(0.,1.,0.));
#3090=AXIS2_PLACEMENT_3D('',#3060,#3070,#3080);
#3100=PLANE('',#3090);
#3110=ORIENTED_EDGE('',*,*,#3000,.F.);
#3120=ORIENTED_EDGE('',*,*,#1100,.T.);
#3130=CARTESIAN_POINT('',(0.,1.5,-7.49999999999999));
#3140=DIRECTION('',(0.,0.,1.));
#3150=VECTOR('',#3140,1.);
#3160=LINE('',#3130,#3150);
#3170=EDGE_CURVE('',#110,#990,#3160,.T.);
#3180=ORIENTED_EDGE('',*,*,#3170,.T.);
#3190=ORIENTED_EDGE('',*,*,#840,.F.);
#3200=EDGE_LOOP('',(#3190,#3180,#3120,#3110));
#3210=FACE_OUTER_BOUND('',#3200,.T.);
#3220=ADVANCED_FACE('',(#3210),#3100,.T.);
#3230=CARTESIAN_POINT('',(14.25,0.75,-7.49999999999999));
#3240=DIRECTION('',(0.707106781186548,-0.707106781186548,0.));
#3250=DIRECTION('',(0.707106781186548,0.707106781186548,0.));
#3260=AXIS2_PLACEMENT_3D('',#3230,#3240,#3250);
#3270=PLANE('',#3260);
#3280=ORIENTED_EDGE('',*,*,#1660,.T.);
#3290=ORIENTED_EDGE('',*,*,#2080,.T.);
#3300=ORIENTED_EDGE('',*,*,#300,.F.);
#3310=ORIENTED_EDGE('',*,*,#1870,.F.);
#3320=EDGE_LOOP('',(#3310,#3300,#3290,#3280));
#3330=FACE_OUTER_BOUND('',#3320,.T.);
#3340=ADVANCED_FACE('',(#3330),#3270,.T.);
#3350=CARTESIAN_POINT('',(0.75,0.75,-7.49999999999999));
#3360=DIRECTION('',(0.707106781186548,0.707106781186548,-0.));
#3370=DIRECTION('',(-0.707106781186548,0.707106781186548,0.));
#3380=AXIS2_PLACEMENT_3D('',#3350,#3360,#3370);
#3390=PLANE('',#3380);
#3400=ORIENTED_EDGE('',*,*,#140,.T.);
#3410=ORIENTED_EDGE('',*,*,#3170,.F.);
#3420=ORIENTED_EDGE('',*,*,#1020,.F.);
#3430=ORIENTED_EDGE('',*,*,#1940,.T.);
#3440=EDGE_LOOP('',(#3430,#3420,#3410,#3400));
#3450=FACE_OUTER_BOUND('',#3440,.T.);
#3460=ADVANCED_FACE('',(#3450),#3390,.F.);
#3470=CLOSED_SHELL('',(#1980,#2200,#2370,#2540,#2710,#2880,#3050,#3220,
#3340,#3460,#1760,#880));
#3480=MANIFOLD_SOLID_BREP('',#3470);
#3490=CARTESIAN_POINT('',(0.,0.,0.));
#3500=DIRECTION('',(0.,0.,1.));
#3510=DIRECTION('',(1.,0.,0.));
#3520=AXIS2_PLACEMENT_3D('',#3490,#3500,#3510);
#3530=APPLICATION_CONTEXT(' ');
#3540=APPLICATION_PROTOCOL_DEFINITION(' ','automotive_design',1998,#3530
);
#3550=PRODUCT_CONTEXT('',#3530,'mechanical');
#3560=PRODUCT_DEFINITION_CONTEXT('part definition',#3530,'design');
#3570=PRODUCT(
'Klemmschienenprofil-MMS-33_1564x3000mm_33.0125.1_PX176078',
'Klemmschienenprofil-MMS-33_1564x3000mm_33.0125.1_PX176078','',(#3550));
#3580=PRODUCT_RELATED_PRODUCT_CATEGORY('part',' ',(#3570));
#3590=PRODUCT_DEFINITION_FORMATION_WITH_SPECIFIED_SOURCE('','',#3570,
.BOUGHT.);
#3600=PRODUCT_DEFINITION('',' ',#3590,#3560);
#3610=PRODUCT_DEFINITION_SHAPE('','',#3600);
#3620=DIMENSIONAL_EXPONENTS(1.,0.,0.,0.,0.,0.,0.);
#3630=DIMENSIONAL_EXPONENTS(0.,0.,0.,0.,0.,0.,0.);
#3640=DIMENSIONAL_EXPONENTS(0.,0.,0.,0.,0.,0.,0.);
#3650=(LENGTH_UNIT() NAMED_UNIT(*) SI_UNIT(.MILLI.,.METRE.));
#3660=(NAMED_UNIT(*) PLANE_ANGLE_UNIT() SI_UNIT($,.RADIAN.));
#3670=(NAMED_UNIT(*) SI_UNIT($,.STERADIAN.) SOLID_ANGLE_UNIT());
#3680=(GEOMETRIC_REPRESENTATION_CONTEXT(3) 
GLOBAL_UNCERTAINTY_ASSIGNED_CONTEXT((#3690)) 
GLOBAL_UNIT_ASSIGNED_CONTEXT((#3650,#3660,#3670)) REPRESENTATION_CONTEXT
('',''));
#3690=UNCERTAINTY_MEASURE_WITH_UNIT(LENGTH_MEASURE(1.E-6),#3650,
'distance_accuracy_value','maximum gap value');
#3700=ADVANCED_BREP_SHAPE_REPRESENTATION('',(#3520,#3480),#3680);
#3710=SHAPE_DEFINITION_REPRESENTATION(#3610,#3700);
#3720=COLOUR_RGB('',0.690196096897125,0.886274576187134,1.);
#3730=FILL_AREA_STYLE_COLOUR('',#3720);
#3740=FILL_AREA_STYLE('',(#3730));
#3750=SURFACE_STYLE_FILL_AREA(#3740);
#3760=SURFACE_SIDE_STYLE('',(#3750));
#3770=SURFACE_STYLE_USAGE(.BOTH.,#3760);
#3780=PRESENTATION_STYLE_ASSIGNMENT((#3770));
#3790=STYLED_ITEM('',(#3780),#3480);
#3800=DRAUGHTING_MODEL('',(#3790),#3680);
#3810=CARTESIAN_POINT('',(0.,0.,55.));
#3820=DIRECTION('',(0.,0.,1.));
#3830=DIRECTION('',(1.,0.,0.));
#3840=AXIS2_PLACEMENT_3D('',#3810,#3820,#3830);
#3850=ITEM_DEFINED_TRANSFORMATION(
'Klemmschienenprofil-MMS-33_1564x3000mm_33.0125.1_PX176078','',#3520,
#3840);
#3860=APPLICATION_CONTEXT(' ');
#3870=APPLICATION_PROTOCOL_DEFINITION(' ','automotive_design',1998,#3860
);
#3880=PRODUCT_CONTEXT('',#3860,'mechanical');
#3890=PRODUCT_DEFINITION_CONTEXT('part definition',#3860,'design');
#3900=PRODUCT(
'Klemmschienenprofil-MMS-33_1564x3000mm_33.0125.1_PX176078',
'Klemmschienenprofil-MMS-33_1564x3000mm_33.0125.1_PX176078','',(#3880));
#3910=PRODUCT_RELATED_PRODUCT_CATEGORY('part',' ',(#3900));
#3920=PRODUCT_DEFINITION_FORMATION_WITH_SPECIFIED_SOURCE('','',#3900,
.BOUGHT.);
#3930=PRODUCT_DEFINITION('',' ',#3920,#3890);
#3940=PRODUCT_DEFINITION_SHAPE('','',#3930);
#3950=DIMENSIONAL_EXPONENTS(1.,0.,0.,0.,0.,0.,0.);
#3960=DIMENSIONAL_EXPONENTS(0.,0.,0.,0.,0.,0.,0.);
#3970=DIMENSIONAL_EXPONENTS(0.,0.,0.,0.,0.,0.,0.);
#3980=(LENGTH_UNIT() NAMED_UNIT(*) SI_UNIT(.MILLI.,.METRE.));
#3990=(NAMED_UNIT(*) PLANE_ANGLE_UNIT() SI_UNIT($,.RADIAN.));
#4000=(NAMED_UNIT(*) SI_UNIT($,.STERADIAN.) SOLID_ANGLE_UNIT());
#4010=(GEOMETRIC_REPRESENTATION_CONTEXT(3) 
GLOBAL_UNCERTAINTY_ASSIGNED_CONTEXT((#4020)) 
GLOBAL_UNIT_ASSIGNED_CONTEXT((#3980,#3990,#4000)) REPRESENTATION_CONTEXT
('',''));
#4020=UNCERTAINTY_MEASURE_WITH_UNIT(LENGTH_MEASURE(1.E-6),#3980,
'distance_accuracy_value','maximum gap value');
#4030=SHAPE_REPRESENTATION('',(#3520,#3840),#4010);
#4040=SHAPE_DEFINITION_REPRESENTATION(#3940,#4030);
#4050=(REPRESENTATION_RELATIONSHIP('','',#3700,#4030) 
REPRESENTATION_RELATIONSHIP_WITH_TRANSFORMATION(#3850) 
SHAPE_REPRESENTATION_RELATIONSHIP());
#4060=NEXT_ASSEMBLY_USAGE_OCCURRENCE('1','',
'Klemmschienenprofil-MMS-33_1564x3000mm_33.0125.1_PX176078',#3930,#3600,
'');
#4070=PRODUCT_DEFINITION_SHAPE('','',#4060);
#4080=CONTEXT_DEPENDENT_SHAPE_REPRESENTATION(#4050,#4070);
ENDSEC;
END-ISO-10303-21;
