ISO-10303-21;
HEADER;
FILE_DESCRIPTION(('Creo Elements/Direct Modeling STEP Export'),'2;1');
FILE_NAME(
'//KR-CAD2/PhoenixTemp/stefanie.mayer/Konvertierung/PX173467_0.stp',
'2022-12-12T13:47:17',(''),(''),
'PTC Creo Elements/Direct Modeling STEP processor for AP214 (Solid Model
)',
'PTC Creo Elements/Direct Modeling 19.0C  15-Aug-2015 (C) Parametric Tec
hnology GmbH','');
FILE_SCHEMA(('AUTOMOTIVE_DESIGN { 1 0 10303 214 1 1 1 1 }'));
ENDSEC;
DATA;
#10=CARTESIAN_POINT('',(0.,0.,0.));
#20=DIRECTION('',(0.,0.,1.));
#30=DIRECTION('',(1.,0.,0.));
#40=AXIS2_PLACEMENT_3D('',#10,#20,#30);
#50=PLANE('',#40);
#60=CARTESIAN_POINT('',(0.,40.,0.));
#70=DIRECTION('',(0.,-1.,0.));
#80=VECTOR('',#70,1.);
#90=LINE('',#60,#80);
#100=CARTESIAN_POINT('',(0.,40.,0.));
#110=VERTEX_POINT('',#100);
#120=CARTESIAN_POINT('',(0.,0.,0.));
#130=VERTEX_POINT('',#120);
#140=EDGE_CURVE('',#110,#130,#90,.T.);
#150=ORIENTED_EDGE('',*,*,#140,.F.);
#160=CARTESIAN_POINT('',(0.,0.,0.));
#170=DIRECTION('',(1.,0.,0.));
#180=VECTOR('',#170,1.);
#190=LINE('',#160,#180);
#200=CARTESIAN_POINT('',(40.,0.,0.));
#210=VERTEX_POINT('',#200);
#220=EDGE_CURVE('',#130,#210,#190,.T.);
#230=ORIENTED_EDGE('',*,*,#220,.F.);
#240=CARTESIAN_POINT('',(40.,0.,0.));
#250=DIRECTION('',(0.,1.,0.));
#260=VECTOR('',#250,1.);
#270=LINE('',#240,#260);
#280=CARTESIAN_POINT('',(40.,5.,0.));
#290=VERTEX_POINT('',#280);
#300=EDGE_CURVE('',#210,#290,#270,.T.);
#310=ORIENTED_EDGE('',*,*,#300,.F.);
#320=CARTESIAN_POINT('',(0.,5.,0.));
#330=DIRECTION('',(1.,0.,0.));
#340=VECTOR('',#330,1.);
#350=LINE('',#320,#340);
#360=CARTESIAN_POINT('',(5.,5.,0.));
#370=VERTEX_POINT('',#360);
#380=EDGE_CURVE('',#370,#290,#350,.T.);
#390=ORIENTED_EDGE('',*,*,#380,.T.);
#400=CARTESIAN_POINT('',(5.,0.,0.));
#410=DIRECTION('',(0.,-1.,0.));
#420=VECTOR('',#410,1.);
#430=LINE('',#400,#420);
#440=CARTESIAN_POINT('',(5.,40.,0.));
#450=VERTEX_POINT('',#440);
#460=EDGE_CURVE('',#450,#370,#430,.T.);
#470=ORIENTED_EDGE('',*,*,#460,.T.);
#480=CARTESIAN_POINT('',(0.,40.,0.));
#490=DIRECTION('',(-1.,0.,0.));
#500=VECTOR('',#490,1.);
#510=LINE('',#480,#500);
#520=EDGE_CURVE('',#450,#110,#510,.T.);
#530=ORIENTED_EDGE('',*,*,#520,.F.);
#540=EDGE_LOOP('',(#530,#470,#390,#310,#230,#150));
#550=FACE_OUTER_BOUND('',#540,.T.);
#560=ADVANCED_FACE('',(#550),#50,.F.);
#570=CARTESIAN_POINT('',(5.,5.,-2.8000024));
#580=DIRECTION('',(-1.,0.,0.));
#590=DIRECTION('',(0.,1.,0.));
#600=AXIS2_PLACEMENT_3D('',#570,#580,#590);
#610=PLANE('',#600);
#620=CARTESIAN_POINT('',(5.,25.,14.));
#630=DIRECTION('',(-1.,0.,0.));
#640=DIRECTION('',(0.,-1.,0.));
#650=AXIS2_PLACEMENT_3D('',#620,#630,#640);
#660=CIRCLE('',#650,4.25);
#670=CARTESIAN_POINT('',(5.,25.,18.25));
#680=VERTEX_POINT('',#670);
#690=CARTESIAN_POINT('',(5.,25.,9.75));
#700=VERTEX_POINT('',#690);
#710=EDGE_CURVE('',#680,#700,#660,.T.);
#720=ORIENTED_EDGE('',*,*,#710,.T.);
#730=CARTESIAN_POINT('',(5.,0.,18.25));
#740=DIRECTION('',(0.,1.,0.));
#750=VECTOR('',#740,1.);
#760=LINE('',#730,#750);
#770=CARTESIAN_POINT('',(5.,20.,18.25));
#780=VERTEX_POINT('',#770);
#790=EDGE_CURVE('',#780,#680,#760,.T.);
#800=ORIENTED_EDGE('',*,*,#790,.T.);
#810=CARTESIAN_POINT('',(5.,20.,14.));
#820=DIRECTION('',(-1.,0.,0.));
#830=DIRECTION('',(0.,-1.,0.));
#840=AXIS2_PLACEMENT_3D('',#810,#820,#830);
#850=CIRCLE('',#840,4.25);
#860=CARTESIAN_POINT('',(5.,20.,9.75));
#870=VERTEX_POINT('',#860);
#880=EDGE_CURVE('',#870,#780,#850,.T.);
#890=ORIENTED_EDGE('',*,*,#880,.T.);
#900=CARTESIAN_POINT('',(5.,0.,9.75));
#910=DIRECTION('',(0.,-1.,0.));
#920=VECTOR('',#910,1.);
#930=LINE('',#900,#920);
#940=EDGE_CURVE('',#700,#870,#930,.T.);
#950=ORIENTED_EDGE('',*,*,#940,.T.);
#960=EDGE_LOOP('',(#950,#890,#800,#720));
#970=FACE_BOUND('',#960,.T.);
#980=CARTESIAN_POINT('',(5.,5.,-2.8000024));
#990=DIRECTION('',(0.,0.,1.));
#1000=VECTOR('',#990,1.);
#1010=LINE('',#980,#1000);
#1020=CARTESIAN_POINT('',(5.,5.,28.));
#1030=VERTEX_POINT('',#1020);
#1040=EDGE_CURVE('',#370,#1030,#1010,.T.);
#1050=ORIENTED_EDGE('',*,*,#1040,.F.);
#1060=CARTESIAN_POINT('',(5.,0.,28.));
#1070=DIRECTION('',(0.,-1.,0.));
#1080=VECTOR('',#1070,1.);
#1090=LINE('',#1060,#1080);
#1100=CARTESIAN_POINT('',(5.,40.,28.));
#1110=VERTEX_POINT('',#1100);
#1120=EDGE_CURVE('',#1110,#1030,#1090,.T.);
#1130=ORIENTED_EDGE('',*,*,#1120,.T.);
#1140=CARTESIAN_POINT('',(5.,40.,0.));
#1150=DIRECTION('',(0.,0.,1.));
#1160=VECTOR('',#1150,1.);
#1170=LINE('',#1140,#1160);
#1180=EDGE_CURVE('',#450,#1110,#1170,.T.);
#1190=ORIENTED_EDGE('',*,*,#1180,.T.);
#1200=ORIENTED_EDGE('',*,*,#460,.F.);
#1210=EDGE_LOOP('',(#1200,#1190,#1130,#1050));
#1220=FACE_OUTER_BOUND('',#1210,.T.);
#1230=ADVANCED_FACE('',(#970,#1220),#610,.F.);
#1240=CARTESIAN_POINT('',(48.,5.,-2.8000024));
#1250=DIRECTION('',(-0.,-1.,-0.));
#1260=DIRECTION('',(-1.,0.,0.));
#1270=AXIS2_PLACEMENT_3D('',#1240,#1250,#1260);
#1280=PLANE('',#1270);
#1290=CARTESIAN_POINT('',(25.,5.,14.));
#1300=DIRECTION('',(0.,-1.,0.));
#1310=DIRECTION('',(1.,0.,0.));
#1320=AXIS2_PLACEMENT_3D('',#1290,#1300,#1310);
#1330=CIRCLE('',#1320,4.5);
#1340=CARTESIAN_POINT('',(29.5,5.,14.));
#1350=VERTEX_POINT('',#1340);
#1360=CARTESIAN_POINT('',(20.5,5.,14.));
#1370=VERTEX_POINT('',#1360);
#1380=EDGE_CURVE('',#1350,#1370,#1330,.T.);
#1390=ORIENTED_EDGE('',*,*,#1380,.T.);
#1400=EDGE_CURVE('',#1370,#1350,#1330,.T.);
#1410=ORIENTED_EDGE('',*,*,#1400,.T.);
#1420=EDGE_LOOP('',(#1410,#1390));
#1430=FACE_BOUND('',#1420,.T.);
#1440=ORIENTED_EDGE('',*,*,#1040,.T.);
#1450=ORIENTED_EDGE('',*,*,#380,.F.);
#1460=CARTESIAN_POINT('',(40.,5.,0.));
#1470=DIRECTION('',(0.,0.,-1.));
#1480=VECTOR('',#1470,1.);
#1490=LINE('',#1460,#1480);
#1500=CARTESIAN_POINT('',(40.,5.,28.));
#1510=VERTEX_POINT('',#1500);
#1520=EDGE_CURVE('',#1510,#290,#1490,.T.);
#1530=ORIENTED_EDGE('',*,*,#1520,.T.);
#1540=CARTESIAN_POINT('',(0.,5.,28.));
#1550=DIRECTION('',(1.,0.,0.));
#1560=VECTOR('',#1550,1.);
#1570=LINE('',#1540,#1560);
#1580=EDGE_CURVE('',#1030,#1510,#1570,.T.);
#1590=ORIENTED_EDGE('',*,*,#1580,.T.);
#1600=EDGE_LOOP('',(#1590,#1530,#1450,#1440));
#1610=FACE_OUTER_BOUND('',#1600,.T.);
#1620=ADVANCED_FACE('',(#1430,#1610),#1280,.F.);
#1630=CARTESIAN_POINT('',(25.,44.0000024,14.));
#1640=DIRECTION('',(0.,-1.,0.));
#1650=DIRECTION('',(1.,0.,0.));
#1660=AXIS2_PLACEMENT_3D('',#1630,#1640,#1650);
#1670=CYLINDRICAL_SURFACE('',#1660,4.5);
#1680=CARTESIAN_POINT('',(29.5,44.0000024,14.));
#1690=DIRECTION('',(0.,-1.,0.));
#1700=VECTOR('',#1690,1.);
#1710=LINE('',#1680,#1700);
#1720=CARTESIAN_POINT('',(29.5,0.,14.));
#1730=VERTEX_POINT('',#1720);
#1740=EDGE_CURVE('',#1350,#1730,#1710,.T.);
#1750=ORIENTED_EDGE('',*,*,#1740,.F.);
#1760=CARTESIAN_POINT('',(25.,0.,14.));
#1770=DIRECTION('',(0.,-1.,0.));
#1780=DIRECTION('',(1.,0.,0.));
#1790=AXIS2_PLACEMENT_3D('',#1760,#1770,#1780);
#1800=CIRCLE('',#1790,4.5);
#1810=CARTESIAN_POINT('',(20.5,0.,14.));
#1820=VERTEX_POINT('',#1810);
#1830=EDGE_CURVE('',#1820,#1730,#1800,.T.);
#1840=ORIENTED_EDGE('',*,*,#1830,.T.);
#1850=CARTESIAN_POINT('',(20.5,44.0000024,14.));
#1860=DIRECTION('',(0.,-1.,0.));
#1870=VECTOR('',#1860,1.);
#1880=LINE('',#1850,#1870);
#1890=EDGE_CURVE('',#1370,#1820,#1880,.T.);
#1900=ORIENTED_EDGE('',*,*,#1890,.T.);
#1910=ORIENTED_EDGE('',*,*,#1400,.F.);
#1920=EDGE_LOOP('',(#1910,#1900,#1840,#1750));
#1930=FACE_OUTER_BOUND('',#1920,.T.);
#1940=ADVANCED_FACE('',(#1930),#1670,.F.);
#1950=CARTESIAN_POINT('',(25.,44.0000024,14.));
#1960=DIRECTION('',(0.,-1.,0.));
#1970=DIRECTION('',(1.,0.,0.));
#1980=AXIS2_PLACEMENT_3D('',#1950,#1960,#1970);
#1990=CYLINDRICAL_SURFACE('',#1980,4.5);
#2000=ORIENTED_EDGE('',*,*,#1380,.F.);
#2010=ORIENTED_EDGE('',*,*,#1890,.F.);
#2020=EDGE_CURVE('',#1730,#1820,#1800,.T.);
#2030=ORIENTED_EDGE('',*,*,#2020,.T.);
#2040=ORIENTED_EDGE('',*,*,#1740,.T.);
#2050=EDGE_LOOP('',(#2040,#2030,#2010,#2000));
#2060=FACE_OUTER_BOUND('',#2050,.T.);
#2070=ADVANCED_FACE('',(#2060),#1990,.F.);
#2080=CARTESIAN_POINT('',(0.,0.,28.));
#2090=DIRECTION('',(0.,0.,1.));
#2100=DIRECTION('',(1.,0.,0.));
#2110=AXIS2_PLACEMENT_3D('',#2080,#2090,#2100);
#2120=PLANE('',#2110);
#2130=ORIENTED_EDGE('',*,*,#1120,.F.);
#2140=ORIENTED_EDGE('',*,*,#1580,.F.);
#2150=CARTESIAN_POINT('',(40.,0.,28.));
#2160=DIRECTION('',(0.,1.,0.));
#2170=VECTOR('',#2160,1.);
#2180=LINE('',#2150,#2170);
#2190=CARTESIAN_POINT('',(40.,0.,28.));
#2200=VERTEX_POINT('',#2190);
#2210=EDGE_CURVE('',#2200,#1510,#2180,.T.);
#2220=ORIENTED_EDGE('',*,*,#2210,.T.);
#2230=CARTESIAN_POINT('',(0.,0.,28.));
#2240=DIRECTION('',(1.,0.,0.));
#2250=VECTOR('',#2240,1.);
#2260=LINE('',#2230,#2250);
#2270=CARTESIAN_POINT('',(0.,0.,28.));
#2280=VERTEX_POINT('',#2270);
#2290=EDGE_CURVE('',#2280,#2200,#2260,.T.);
#2300=ORIENTED_EDGE('',*,*,#2290,.T.);
#2310=CARTESIAN_POINT('',(0.,40.,28.));
#2320=DIRECTION('',(0.,-1.,0.));
#2330=VECTOR('',#2320,1.);
#2340=LINE('',#2310,#2330);
#2350=CARTESIAN_POINT('',(0.,40.,28.));
#2360=VERTEX_POINT('',#2350);
#2370=EDGE_CURVE('',#2360,#2280,#2340,.T.);
#2380=ORIENTED_EDGE('',*,*,#2370,.T.);
#2390=CARTESIAN_POINT('',(0.,40.,28.));
#2400=DIRECTION('',(-1.,0.,0.));
#2410=VECTOR('',#2400,1.);
#2420=LINE('',#2390,#2410);
#2430=EDGE_CURVE('',#1110,#2360,#2420,.T.);
#2440=ORIENTED_EDGE('',*,*,#2430,.T.);
#2450=EDGE_LOOP('',(#2440,#2380,#2300,#2220,#2140,#2130));
#2460=FACE_OUTER_BOUND('',#2450,.T.);
#2470=ADVANCED_FACE('',(#2460),#2120,.T.);
#2480=CARTESIAN_POINT('',(0.,0.,0.));
#2490=DIRECTION('',(-1.,0.,0.));
#2500=DIRECTION('',(0.,1.,0.));
#2510=AXIS2_PLACEMENT_3D('',#2480,#2490,#2500);
#2520=PLANE('',#2510);
#2530=CARTESIAN_POINT('',(0.,20.,14.));
#2540=DIRECTION('',(-1.,0.,0.));
#2550=DIRECTION('',(0.,-1.,0.));
#2560=AXIS2_PLACEMENT_3D('',#2530,#2540,#2550);
#2570=CIRCLE('',#2560,4.25);
#2580=CARTESIAN_POINT('',(0.,20.,9.75));
#2590=VERTEX_POINT('',#2580);
#2600=CARTESIAN_POINT('',(0.,20.,18.25));
#2610=VERTEX_POINT('',#2600);
#2620=EDGE_CURVE('',#2590,#2610,#2570,.T.);
#2630=ORIENTED_EDGE('',*,*,#2620,.F.);
#2640=CARTESIAN_POINT('',(0.,0.,18.25));
#2650=DIRECTION('',(0.,1.,0.));
#2660=VECTOR('',#2650,1.);
#2670=LINE('',#2640,#2660);
#2680=CARTESIAN_POINT('',(0.,25.,18.25));
#2690=VERTEX_POINT('',#2680);
#2700=EDGE_CURVE('',#2610,#2690,#2670,.T.);
#2710=ORIENTED_EDGE('',*,*,#2700,.F.);
#2720=CARTESIAN_POINT('',(0.,25.,14.));
#2730=DIRECTION('',(-1.,0.,0.));
#2740=DIRECTION('',(0.,-1.,0.));
#2750=AXIS2_PLACEMENT_3D('',#2720,#2730,#2740);
#2760=CIRCLE('',#2750,4.25);
#2770=CARTESIAN_POINT('',(0.,25.,9.75));
#2780=VERTEX_POINT('',#2770);
#2790=EDGE_CURVE('',#2690,#2780,#2760,.T.);
#2800=ORIENTED_EDGE('',*,*,#2790,.F.);
#2810=CARTESIAN_POINT('',(0.,0.,9.75));
#2820=DIRECTION('',(0.,-1.,0.));
#2830=VECTOR('',#2820,1.);
#2840=LINE('',#2810,#2830);
#2850=EDGE_CURVE('',#2780,#2590,#2840,.T.);
#2860=ORIENTED_EDGE('',*,*,#2850,.F.);
#2870=EDGE_LOOP('',(#2860,#2800,#2710,#2630));
#2880=FACE_BOUND('',#2870,.T.);
#2890=CARTESIAN_POINT('',(0.,40.,0.));
#2900=DIRECTION('',(0.,0.,1.));
#2910=VECTOR('',#2900,1.);
#2920=LINE('',#2890,#2910);
#2930=EDGE_CURVE('',#110,#2360,#2920,.T.);
#2940=ORIENTED_EDGE('',*,*,#2930,.F.);
#2950=ORIENTED_EDGE('',*,*,#2370,.F.);
#2960=CARTESIAN_POINT('',(0.,0.,0.));
#2970=DIRECTION('',(0.,0.,1.));
#2980=VECTOR('',#2970,1.);
#2990=LINE('',#2960,#2980);
#3000=EDGE_CURVE('',#130,#2280,#2990,.T.);
#3010=ORIENTED_EDGE('',*,*,#3000,.T.);
#3020=ORIENTED_EDGE('',*,*,#140,.T.);
#3030=EDGE_LOOP('',(#3020,#3010,#2950,#2940));
#3040=FACE_OUTER_BOUND('',#3030,.T.);
#3050=ADVANCED_FACE('',(#2880,#3040),#2520,.T.);
#3060=CARTESIAN_POINT('',(40.,0.,0.));
#3070=DIRECTION('',(-0.,-1.,-0.));
#3080=DIRECTION('',(-1.,0.,0.));
#3090=AXIS2_PLACEMENT_3D('',#3060,#3070,#3080);
#3100=PLANE('',#3090);
#3110=ORIENTED_EDGE('',*,*,#2020,.F.);
#3120=ORIENTED_EDGE('',*,*,#1830,.F.);
#3130=EDGE_LOOP('',(#3120,#3110));
#3140=FACE_BOUND('',#3130,.T.);
#3150=ORIENTED_EDGE('',*,*,#3000,.F.);
#3160=ORIENTED_EDGE('',*,*,#2290,.F.);
#3170=CARTESIAN_POINT('',(40.,0.,0.));
#3180=DIRECTION('',(0.,0.,1.));
#3190=VECTOR('',#3180,1.);
#3200=LINE('',#3170,#3190);
#3210=EDGE_CURVE('',#210,#2200,#3200,.T.);
#3220=ORIENTED_EDGE('',*,*,#3210,.T.);
#3230=ORIENTED_EDGE('',*,*,#220,.T.);
#3240=EDGE_LOOP('',(#3230,#3220,#3160,#3150));
#3250=FACE_OUTER_BOUND('',#3240,.T.);
#3260=ADVANCED_FACE('',(#3140,#3250),#3100,.T.);
#3270=CARTESIAN_POINT('',(40.,40.,0.));
#3280=DIRECTION('',(1.,0.,0.));
#3290=DIRECTION('',(0.,-1.,0.));
#3300=AXIS2_PLACEMENT_3D('',#3270,#3280,#3290);
#3310=PLANE('',#3300);
#3320=ORIENTED_EDGE('',*,*,#300,.T.);
#3330=ORIENTED_EDGE('',*,*,#3210,.F.);
#3340=ORIENTED_EDGE('',*,*,#2210,.F.);
#3350=ORIENTED_EDGE('',*,*,#1520,.F.);
#3360=EDGE_LOOP('',(#3350,#3340,#3330,#3320));
#3370=FACE_OUTER_BOUND('',#3360,.T.);
#3380=ADVANCED_FACE('',(#3370),#3310,.T.);
#3390=CARTESIAN_POINT('',(0.,40.,0.));
#3400=DIRECTION('',(-0.,1.,0.));
#3410=DIRECTION('',(1.,0.,0.));
#3420=AXIS2_PLACEMENT_3D('',#3390,#3400,#3410);
#3430=PLANE('',#3420);
#3440=ORIENTED_EDGE('',*,*,#1180,.F.);
#3450=ORIENTED_EDGE('',*,*,#2430,.F.);
#3460=ORIENTED_EDGE('',*,*,#2930,.T.);
#3470=ORIENTED_EDGE('',*,*,#520,.T.);
#3480=EDGE_LOOP('',(#3470,#3460,#3450,#3440));
#3490=FACE_OUTER_BOUND('',#3480,.T.);
#3500=ADVANCED_FACE('',(#3490),#3430,.T.);
#3510=CARTESIAN_POINT('',(44.0000024,20.,14.));
#3520=DIRECTION('',(-1.,0.,0.));
#3530=DIRECTION('',(0.,-1.,0.));
#3540=AXIS2_PLACEMENT_3D('',#3510,#3520,#3530);
#3550=CYLINDRICAL_SURFACE('',#3540,4.25);
#3560=CARTESIAN_POINT('',(44.0000024,20.,18.25));
#3570=DIRECTION('',(-1.,0.,0.));
#3580=VECTOR('',#3570,1.);
#3590=LINE('',#3560,#3580);
#3600=EDGE_CURVE('',#780,#2610,#3590,.T.);
#3610=ORIENTED_EDGE('',*,*,#3600,.F.);
#3620=ORIENTED_EDGE('',*,*,#2620,.T.);
#3630=CARTESIAN_POINT('',(44.0000024,20.,9.75));
#3640=DIRECTION('',(-1.,0.,0.));
#3650=VECTOR('',#3640,1.);
#3660=LINE('',#3630,#3650);
#3670=EDGE_CURVE('',#870,#2590,#3660,.T.);
#3680=ORIENTED_EDGE('',*,*,#3670,.T.);
#3690=ORIENTED_EDGE('',*,*,#880,.F.);
#3700=EDGE_LOOP('',(#3690,#3680,#3620,#3610));
#3710=FACE_OUTER_BOUND('',#3700,.T.);
#3720=ADVANCED_FACE('',(#3710),#3550,.F.);
#3730=CARTESIAN_POINT('',(44.0000024,25.,18.25));
#3740=DIRECTION('',(-0.,0.,1.));
#3750=DIRECTION('',(0.,-1.,0.));
#3760=AXIS2_PLACEMENT_3D('',#3730,#3740,#3750);
#3770=PLANE('',#3760);
#3780=CARTESIAN_POINT('',(44.0000024,25.,18.25));
#3790=DIRECTION('',(-1.,0.,0.));
#3800=VECTOR('',#3790,1.);
#3810=LINE('',#3780,#3800);
#3820=EDGE_CURVE('',#680,#2690,#3810,.T.);
#3830=ORIENTED_EDGE('',*,*,#3820,.F.);
#3840=ORIENTED_EDGE('',*,*,#2700,.T.);
#3850=ORIENTED_EDGE('',*,*,#3600,.T.);
#3860=ORIENTED_EDGE('',*,*,#790,.F.);
#3870=EDGE_LOOP('',(#3860,#3850,#3840,#3830));
#3880=FACE_OUTER_BOUND('',#3870,.T.);
#3890=ADVANCED_FACE('',(#3880),#3770,.F.);
#3900=CARTESIAN_POINT('',(44.0000024,25.,14.));
#3910=DIRECTION('',(-1.,0.,0.));
#3920=DIRECTION('',(0.,-1.,0.));
#3930=AXIS2_PLACEMENT_3D('',#3900,#3910,#3920);
#3940=CYLINDRICAL_SURFACE('',#3930,4.25);
#3950=CARTESIAN_POINT('',(44.0000024,25.,9.75));
#3960=DIRECTION('',(-1.,0.,0.));
#3970=VECTOR('',#3960,1.);
#3980=LINE('',#3950,#3970);
#3990=EDGE_CURVE('',#700,#2780,#3980,.T.);
#4000=ORIENTED_EDGE('',*,*,#3990,.F.);
#4010=ORIENTED_EDGE('',*,*,#2790,.T.);
#4020=ORIENTED_EDGE('',*,*,#3820,.T.);
#4030=ORIENTED_EDGE('',*,*,#710,.F.);
#4040=EDGE_LOOP('',(#4030,#4020,#4010,#4000));
#4050=FACE_OUTER_BOUND('',#4040,.T.);
#4060=ADVANCED_FACE('',(#4050),#3940,.F.);
#4070=CARTESIAN_POINT('',(44.0000024,20.,9.75));
#4080=DIRECTION('',(0.,0.,-1.));
#4090=DIRECTION('',(0.,1.,0.));
#4100=AXIS2_PLACEMENT_3D('',#4070,#4080,#4090);
#4110=PLANE('',#4100);
#4120=ORIENTED_EDGE('',*,*,#3670,.F.);
#4130=ORIENTED_EDGE('',*,*,#2850,.T.);
#4140=ORIENTED_EDGE('',*,*,#3990,.T.);
#4150=ORIENTED_EDGE('',*,*,#940,.F.);
#4160=EDGE_LOOP('',(#4150,#4140,#4130,#4120));
#4170=FACE_OUTER_BOUND('',#4160,.T.);
#4180=ADVANCED_FACE('',(#4170),#4110,.F.);
#4190=CLOSED_SHELL('',(#3050,#3260,#3380,#3500,#3720,#3890,#4060,#4180,
#2470,#560,#1230,#1620,#1940,#2070));
#4200=MANIFOLD_SOLID_BREP('',#4190);
#4210=CARTESIAN_POINT('',(0.,0.,0.));
#4220=DIRECTION('',(0.,0.,1.));
#4230=DIRECTION('',(1.,0.,0.));
#4240=AXIS2_PLACEMENT_3D('',#4210,#4220,#4230);
#4250=APPLICATION_CONTEXT(' ');
#4260=APPLICATION_PROTOCOL_DEFINITION(' ','automotive_design',1998,#4250
);
#4270=PRODUCT_CONTEXT('',#4250,'mechanical');
#4280=PRODUCT_DEFINITION_CONTEXT('part definition',#4250,'design');
#4290=PRODUCT('C-Profilschienenwinkel_40x40x28x5_110.0070.9_PX173467',
'C-Profilschienenwinkel_40x40x28x5_110.0070.9_PX173467','',(#4270));
#4300=PRODUCT_RELATED_PRODUCT_CATEGORY('part',' ',(#4290));
#4310=PRODUCT_DEFINITION_FORMATION_WITH_SPECIFIED_SOURCE('','',#4290,
.BOUGHT.);
#4320=PRODUCT_DEFINITION('',' ',#4310,#4280);
#4330=PRODUCT_DEFINITION_SHAPE('','',#4320);
#4340=DIMENSIONAL_EXPONENTS(1.,0.,0.,0.,0.,0.,0.);
#4350=DIMENSIONAL_EXPONENTS(0.,0.,0.,0.,0.,0.,0.);
#4360=DIMENSIONAL_EXPONENTS(0.,0.,0.,0.,0.,0.,0.);
#4370=(LENGTH_UNIT() NAMED_UNIT(*) SI_UNIT(.MILLI.,.METRE.));
#4380=(NAMED_UNIT(*) PLANE_ANGLE_UNIT() SI_UNIT($,.RADIAN.));
#4390=(NAMED_UNIT(*) SI_UNIT($,.STERADIAN.) SOLID_ANGLE_UNIT());
#4400=(GEOMETRIC_REPRESENTATION_CONTEXT(3) 
GLOBAL_UNCERTAINTY_ASSIGNED_CONTEXT((#4410)) 
GLOBAL_UNIT_ASSIGNED_CONTEXT((#4370,#4380,#4390)) REPRESENTATION_CONTEXT
('',''));
#4410=UNCERTAINTY_MEASURE_WITH_UNIT(LENGTH_MEASURE(1.E-6),#4370,
'distance_accuracy_value','maximum gap value');
#4420=ADVANCED_BREP_SHAPE_REPRESENTATION('',(#4240,#4200),#4400);
#4430=SHAPE_DEFINITION_REPRESENTATION(#4330,#4420);
#4440=COLOUR_RGB('',0.690196096897125,0.886274576187134,1.);
#4450=FILL_AREA_STYLE_COLOUR('',#4440);
#4460=FILL_AREA_STYLE('',(#4450));
#4470=SURFACE_STYLE_FILL_AREA(#4460);
#4480=SURFACE_SIDE_STYLE('',(#4470));
#4490=SURFACE_STYLE_USAGE(.BOTH.,#4480);
#4500=PRESENTATION_STYLE_ASSIGNMENT((#4490));
#4510=STYLED_ITEM('',(#4500),#4200);
#4520=DRAUGHTING_MODEL('',(#4510),#4400);
#4530=CARTESIAN_POINT('',(34.,0.,3.77475828372553E-15));
#4540=DIRECTION('',(-1.,0.,0.));
#4550=DIRECTION('',(0.,0.,1.));
#4560=AXIS2_PLACEMENT_3D('',#4530,#4540,#4550);
#4570=ITEM_DEFINED_TRANSFORMATION(
'C-Profilschienenwinkel_40x40x28x5_110.0070.9_PX173467','',#4240,#4560);
#4580=APPLICATION_CONTEXT(' ');
#4590=APPLICATION_PROTOCOL_DEFINITION(' ','automotive_design',1998,#4580
);
#4600=PRODUCT_CONTEXT('',#4580,'mechanical');
#4610=PRODUCT_DEFINITION_CONTEXT('part definition',#4580,'design');
#4620=PRODUCT('C-Profilschienenwinkel_40x40x28x5_110.0070.9_PX173467',
'C-Profilschienenwinkel_40x40x28x5_110.0070.9_PX173467','',(#4600));
#4630=PRODUCT_RELATED_PRODUCT_CATEGORY('part',' ',(#4620));
#4640=PRODUCT_DEFINITION_FORMATION_WITH_SPECIFIED_SOURCE('','',#4620,
.BOUGHT.);
#4650=PRODUCT_DEFINITION('',' ',#4640,#4610);
#4660=PRODUCT_DEFINITION_SHAPE('','',#4650);
#4670=DIMENSIONAL_EXPONENTS(1.,0.,0.,0.,0.,0.,0.);
#4680=DIMENSIONAL_EXPONENTS(0.,0.,0.,0.,0.,0.,0.);
#4690=DIMENSIONAL_EXPONENTS(0.,0.,0.,0.,0.,0.,0.);
#4700=(LENGTH_UNIT() NAMED_UNIT(*) SI_UNIT(.MILLI.,.METRE.));
#4710=(NAMED_UNIT(*) PLANE_ANGLE_UNIT() SI_UNIT($,.RADIAN.));
#4720=(NAMED_UNIT(*) SI_UNIT($,.STERADIAN.) SOLID_ANGLE_UNIT());
#4730=(GEOMETRIC_REPRESENTATION_CONTEXT(3) 
GLOBAL_UNCERTAINTY_ASSIGNED_CONTEXT((#4740)) 
GLOBAL_UNIT_ASSIGNED_CONTEXT((#4700,#4710,#4720)) REPRESENTATION_CONTEXT
('',''));
#4740=UNCERTAINTY_MEASURE_WITH_UNIT(LENGTH_MEASURE(1.E-6),#4700,
'distance_accuracy_value','maximum gap value');
#4750=SHAPE_REPRESENTATION('',(#4240,#4560),#4730);
#4760=SHAPE_DEFINITION_REPRESENTATION(#4660,#4750);
#4770=(REPRESENTATION_RELATIONSHIP('','',#4420,#4750) 
REPRESENTATION_RELATIONSHIP_WITH_TRANSFORMATION(#4570) 
SHAPE_REPRESENTATION_RELATIONSHIP());
#4780=NEXT_ASSEMBLY_USAGE_OCCURRENCE('1','',
'C-Profilschienenwinkel_40x40x28x5_110.0070.9_PX173467',#4650,#4320,'');
#4790=PRODUCT_DEFINITION_SHAPE('','',#4780);
#4800=CONTEXT_DEPENDENT_SHAPE_REPRESENTATION(#4770,#4790);
ENDSEC;
END-ISO-10303-21;
