ISO-10303-21;
HEADER;
FILE_DESCRIPTION(('Creo Elements/Direct Modeling STEP Export'),'2;1');
FILE_NAME(
'//KR-CAD2/PhoenixTemp/karl.letzgus/Konvertierung/44.0125.1_Klemmschiene
nprofil-MMS-44_19,8x6,4x3000mm.stp','2022-03-21T 8:56:51',(''),(''),
'PTC Creo Elements/Direct Modeling STEP processor for AP214 (Solid Model
)',
'PTC Creo Elements/Direct Modeling 19.0C  15-Aug-2015 (C) Parametric Tec
hnology GmbH','');
FILE_SCHEMA(('AUTOMOTIVE_DESIGN { 1 0 10303 214 1 1 1 1 }'));
ENDSEC;
DATA;
#10=CARTESIAN_POINT('',(-4.0840909090909,2.46156630432572E-14,90.));
#20=DIRECTION('',(0.,0.,1.));
#30=DIRECTION('',(1.,0.,0.));
#40=AXIS2_PLACEMENT_3D('',#10,#20,#30);
#50=PLANE('',#40);
#60=CARTESIAN_POINT('',(-2.1,-5.,90.));
#70=DIRECTION('',(-1.,2.22044604925031E-16,0.));
#80=VECTOR('',#70,1.);
#90=LINE('',#60,#80);
#100=CARTESIAN_POINT('',(-0.600000000000001,-5.,90.));
#110=VERTEX_POINT('',#100);
#120=CARTESIAN_POINT('',(-2.2,-5.,90.));
#130=VERTEX_POINT('',#120);
#140=EDGE_CURVE('',#110,#130,#90,.T.);
#150=ORIENTED_EDGE('',*,*,#140,.F.);
#160=CARTESIAN_POINT('',(-2.2,-10.,90.));
#170=DIRECTION('',(-2.22044604925031E-16,-1.,0.));
#180=VECTOR('',#170,1.);
#190=LINE('',#160,#180);
#200=CARTESIAN_POINT('',(-2.2,-9.9,90.));
#210=VERTEX_POINT('',#200);
#220=EDGE_CURVE('',#130,#210,#190,.T.);
#230=ORIENTED_EDGE('',*,*,#220,.F.);
#240=CARTESIAN_POINT('',(-6.99999999999998,-9.9,90.));
#250=DIRECTION('',(-1.,2.22044604925031E-16,0.));
#260=VECTOR('',#250,1.);
#270=LINE('',#240,#260);
#280=CARTESIAN_POINT('',(-6.99999999999998,-9.9,90.));
#290=VERTEX_POINT('',#280);
#300=EDGE_CURVE('',#210,#290,#270,.T.);
#310=ORIENTED_EDGE('',*,*,#300,.F.);
#320=CARTESIAN_POINT('',(-6.99999999999997,10.0000000000001,90.));
#330=DIRECTION('',(2.22044604925031E-16,1.,0.));
#340=VECTOR('',#330,1.);
#350=LINE('',#320,#340);
#360=CARTESIAN_POINT('',(-6.99999999999998,9.9000000000001,90.));
#370=VERTEX_POINT('',#360);
#380=EDGE_CURVE('',#290,#370,#350,.T.);
#390=ORIENTED_EDGE('',*,*,#380,.F.);
#400=CARTESIAN_POINT('',(0.,9.9000000000001,90.));
#410=DIRECTION('',(1.,-2.22044604925031E-16,0.));
#420=VECTOR('',#410,1.);
#430=LINE('',#400,#420);
#440=CARTESIAN_POINT('',(-2.2,9.9000000000001,90.));
#450=VERTEX_POINT('',#440);
#460=EDGE_CURVE('',#370,#450,#430,.T.);
#470=ORIENTED_EDGE('',*,*,#460,.F.);
#480=CARTESIAN_POINT('',(-2.2,0.,90.));
#490=DIRECTION('',(2.22044604925031E-16,1.,0.));
#500=VECTOR('',#490,1.);
#510=LINE('',#480,#500);
#520=CARTESIAN_POINT('',(-2.2,5.,90.));
#530=VERTEX_POINT('',#520);
#540=EDGE_CURVE('',#530,#450,#510,.T.);
#550=ORIENTED_EDGE('',*,*,#540,.T.);
#560=CARTESIAN_POINT('',(0.,5.,90.));
#570=DIRECTION('',(1.,-2.22044604925031E-16,0.));
#580=VECTOR('',#570,1.);
#590=LINE('',#560,#580);
#600=CARTESIAN_POINT('',(-0.599999999999999,5.,90.));
#610=VERTEX_POINT('',#600);
#620=EDGE_CURVE('',#530,#610,#590,.T.);
#630=ORIENTED_EDGE('',*,*,#620,.F.);
#640=CARTESIAN_POINT('',(-0.600000000000001,-5.,90.));
#650=DIRECTION('',(-2.22044604925031E-16,-1.,0.));
#660=VECTOR('',#650,1.);
#670=LINE('',#640,#660);
#680=EDGE_CURVE('',#610,#110,#670,.T.);
#690=ORIENTED_EDGE('',*,*,#680,.F.);
#700=EDGE_LOOP('',(#690,#630,#550,#470,#390,#310,#230,#150));
#710=FACE_OUTER_BOUND('',#700,.T.);
#720=ADVANCED_FACE('',(#710),#50,.T.);
#730=CARTESIAN_POINT('',(-4.0840909090909,2.44213740139478E-14,-10.));
#740=DIRECTION('',(0.,0.,1.));
#750=DIRECTION('',(1.,0.,0.));
#760=AXIS2_PLACEMENT_3D('',#730,#740,#750);
#770=PLANE('',#760);
#780=CARTESIAN_POINT('',(-2.2,0.,-10.));
#790=DIRECTION('',(2.22044604925031E-16,1.,0.));
#800=VECTOR('',#790,1.);
#810=LINE('',#780,#800);
#820=CARTESIAN_POINT('',(-2.2,5.,-10.));
#830=VERTEX_POINT('',#820);
#840=CARTESIAN_POINT('',(-2.2,9.9000000000001,-10.));
#850=VERTEX_POINT('',#840);
#860=EDGE_CURVE('',#830,#850,#810,.T.);
#870=ORIENTED_EDGE('',*,*,#860,.F.);
#880=CARTESIAN_POINT('',(0.,9.9000000000001,-10.));
#890=DIRECTION('',(-1.,2.22044604925031E-16,0.));
#900=VECTOR('',#890,1.);
#910=LINE('',#880,#900);
#920=CARTESIAN_POINT('',(-6.99999999999998,9.9000000000001,-10.));
#930=VERTEX_POINT('',#920);
#940=EDGE_CURVE('',#850,#930,#910,.T.);
#950=ORIENTED_EDGE('',*,*,#940,.F.);
#960=CARTESIAN_POINT('',(-6.99999999999997,10.0000000000001,-10.));
#970=DIRECTION('',(-2.22044604925031E-16,-1.,0.));
#980=VECTOR('',#970,1.);
#990=LINE('',#960,#980);
#1000=CARTESIAN_POINT('',(-6.99999999999998,-9.9,-10.));
#1010=VERTEX_POINT('',#1000);
#1020=EDGE_CURVE('',#930,#1010,#990,.T.);
#1030=ORIENTED_EDGE('',*,*,#1020,.F.);
#1040=CARTESIAN_POINT('',(-6.99999999999998,-9.9,-10.));
#1050=DIRECTION('',(1.,-2.22044604925031E-16,0.));
#1060=VECTOR('',#1050,1.);
#1070=LINE('',#1040,#1060);
#1080=CARTESIAN_POINT('',(-2.2,-9.9,-10.));
#1090=VERTEX_POINT('',#1080);
#1100=EDGE_CURVE('',#1010,#1090,#1070,.T.);
#1110=ORIENTED_EDGE('',*,*,#1100,.F.);
#1120=CARTESIAN_POINT('',(-2.2,-10.,-10.));
#1130=DIRECTION('',(2.22044604925031E-16,1.,0.));
#1140=VECTOR('',#1130,1.);
#1150=LINE('',#1120,#1140);
#1160=CARTESIAN_POINT('',(-2.2,-5.,-10.));
#1170=VERTEX_POINT('',#1160);
#1180=EDGE_CURVE('',#1090,#1170,#1150,.T.);
#1190=ORIENTED_EDGE('',*,*,#1180,.F.);
#1200=CARTESIAN_POINT('',(-2.1,-5.,-10.));
#1210=DIRECTION('',(1.,-2.22044604925031E-16,0.));
#1220=VECTOR('',#1210,1.);
#1230=LINE('',#1200,#1220);
#1240=CARTESIAN_POINT('',(-0.600000000000001,-5.,-10.));
#1250=VERTEX_POINT('',#1240);
#1260=EDGE_CURVE('',#1170,#1250,#1230,.T.);
#1270=ORIENTED_EDGE('',*,*,#1260,.F.);
#1280=CARTESIAN_POINT('',(-0.600000000000001,-5.,-10.));
#1290=DIRECTION('',(2.22044604925031E-16,1.,0.));
#1300=VECTOR('',#1290,1.);
#1310=LINE('',#1280,#1300);
#1320=CARTESIAN_POINT('',(-0.599999999999999,5.,-10.));
#1330=VERTEX_POINT('',#1320);
#1340=EDGE_CURVE('',#1250,#1330,#1310,.T.);
#1350=ORIENTED_EDGE('',*,*,#1340,.F.);
#1360=CARTESIAN_POINT('',(0.,5.,-10.));
#1370=DIRECTION('',(-1.,2.22044604925031E-16,0.));
#1380=VECTOR('',#1370,1.);
#1390=LINE('',#1360,#1380);
#1400=EDGE_CURVE('',#1330,#830,#1390,.T.);
#1410=ORIENTED_EDGE('',*,*,#1400,.F.);
#1420=EDGE_LOOP('',(#1410,#1350,#1270,#1190,#1110,#1030,#950,#870));
#1430=FACE_OUTER_BOUND('',#1420,.T.);
#1440=ADVANCED_FACE('',(#1430),#770,.F.);
#1450=CARTESIAN_POINT('',(-0.600000000000001,-5.,-10.));
#1460=DIRECTION('',(-2.22044604925031E-16,-1.,0.));
#1470=DIRECTION('',(1.,-2.22044604925031E-16,0.));
#1480=AXIS2_PLACEMENT_3D('',#1450,#1460,#1470);
#1490=PLANE('',#1480);
#1500=CARTESIAN_POINT('',(-0.600000000000001,-5.,-10.));
#1510=DIRECTION('',(0.,0.,1.));
#1520=VECTOR('',#1510,1.);
#1530=LINE('',#1500,#1520);
#1540=EDGE_CURVE('',#1250,#110,#1530,.T.);
#1550=ORIENTED_EDGE('',*,*,#1540,.T.);
#1560=ORIENTED_EDGE('',*,*,#1260,.T.);
#1570=CARTESIAN_POINT('',(-2.2,-5.,-10.));
#1580=DIRECTION('',(0.,0.,1.));
#1590=VECTOR('',#1580,1.);
#1600=LINE('',#1570,#1590);
#1610=EDGE_CURVE('',#1170,#130,#1600,.T.);
#1620=ORIENTED_EDGE('',*,*,#1610,.F.);
#1630=ORIENTED_EDGE('',*,*,#140,.T.);
#1640=EDGE_LOOP('',(#1630,#1620,#1560,#1550));
#1650=FACE_OUTER_BOUND('',#1640,.T.);
#1660=ADVANCED_FACE('',(#1650),#1490,.T.);
#1670=CARTESIAN_POINT('',(-2.2,-5.,-10.));
#1680=DIRECTION('',(1.,-2.22044604925031E-16,0.));
#1690=DIRECTION('',(2.22044604925031E-16,1.,0.));
#1700=AXIS2_PLACEMENT_3D('',#1670,#1680,#1690);
#1710=PLANE('',#1700);
#1720=ORIENTED_EDGE('',*,*,#1610,.T.);
#1730=ORIENTED_EDGE('',*,*,#1180,.T.);
#1740=CARTESIAN_POINT('',(-2.2,-9.9,-10.));
#1750=DIRECTION('',(0.,0.,1.));
#1760=VECTOR('',#1750,1.);
#1770=LINE('',#1740,#1760);
#1780=EDGE_CURVE('',#1090,#210,#1770,.T.);
#1790=ORIENTED_EDGE('',*,*,#1780,.F.);
#1800=ORIENTED_EDGE('',*,*,#220,.T.);
#1810=EDGE_LOOP('',(#1800,#1790,#1730,#1720));
#1820=FACE_OUTER_BOUND('',#1810,.T.);
#1830=ADVANCED_FACE('',(#1820),#1710,.T.);
#1840=CARTESIAN_POINT('',(-2.2,9.9000000000001,0.));
#1850=DIRECTION('',(0.,0.,-1.));
#1860=VECTOR('',#1850,1.);
#1870=LINE('',#1840,#1860);
#1880=EDGE_CURVE('',#450,#850,#1870,.T.);
#1890=ORIENTED_EDGE('',*,*,#1880,.F.);
#1900=ORIENTED_EDGE('',*,*,#860,.T.);
#1910=CARTESIAN_POINT('',(-2.2,5.,0.));
#1920=DIRECTION('',(0.,0.,-1.));
#1930=VECTOR('',#1920,1.);
#1940=LINE('',#1910,#1930);
#1950=EDGE_CURVE('',#530,#830,#1940,.T.);
#1960=ORIENTED_EDGE('',*,*,#1950,.T.);
#1970=ORIENTED_EDGE('',*,*,#540,.F.);
#1980=EDGE_LOOP('',(#1970,#1960,#1900,#1890));
#1990=FACE_OUTER_BOUND('',#1980,.T.);
#2000=ADVANCED_FACE('',(#1990),#1710,.T.);
#2010=CARTESIAN_POINT('',(-2.1,5.,-10.));
#2020=DIRECTION('',(2.22044604925031E-16,1.,0.));
#2030=DIRECTION('',(1.,-2.22044604925031E-16,0.));
#2040=AXIS2_PLACEMENT_3D('',#2010,#2020,#2030);
#2050=PLANE('',#2040);
#2060=ORIENTED_EDGE('',*,*,#1950,.F.);
#2070=ORIENTED_EDGE('',*,*,#1400,.T.);
#2080=CARTESIAN_POINT('',(-0.599999999999999,5.,-10.));
#2090=DIRECTION('',(0.,0.,1.));
#2100=VECTOR('',#2090,1.);
#2110=LINE('',#2080,#2100);
#2120=EDGE_CURVE('',#1330,#610,#2110,.T.);
#2130=ORIENTED_EDGE('',*,*,#2120,.F.);
#2140=ORIENTED_EDGE('',*,*,#620,.T.);
#2150=EDGE_LOOP('',(#2140,#2130,#2070,#2060));
#2160=FACE_OUTER_BOUND('',#2150,.T.);
#2170=ADVANCED_FACE('',(#2160),#2050,.T.);
#2180=CARTESIAN_POINT('',(-0.599999999999999,5.,-10.));
#2190=DIRECTION('',(1.,-2.22044604925031E-16,0.));
#2200=DIRECTION('',(2.22044604925031E-16,1.,0.));
#2210=AXIS2_PLACEMENT_3D('',#2180,#2190,#2200);
#2220=PLANE('',#2210);
#2230=ORIENTED_EDGE('',*,*,#2120,.T.);
#2240=ORIENTED_EDGE('',*,*,#1340,.T.);
#2250=ORIENTED_EDGE('',*,*,#1540,.F.);
#2260=ORIENTED_EDGE('',*,*,#680,.T.);
#2270=EDGE_LOOP('',(#2260,#2250,#2240,#2230));
#2280=FACE_OUTER_BOUND('',#2270,.T.);
#2290=ADVANCED_FACE('',(#2280),#2220,.T.);
#2300=CARTESIAN_POINT('',(-6.99999999999997,9.9000000000001,-10.));
#2310=DIRECTION('',(2.22044604925031E-16,1.,0.));
#2320=DIRECTION('',(1.,-2.22044604925031E-16,0.));
#2330=AXIS2_PLACEMENT_3D('',#2300,#2310,#2320);
#2340=PLANE('',#2330);
#2350=CARTESIAN_POINT('',(-6.99999999999997,9.9000000000001,-10.));
#2360=DIRECTION('',(0.,0.,1.));
#2370=VECTOR('',#2360,1.);
#2380=LINE('',#2350,#2370);
#2390=EDGE_CURVE('',#930,#370,#2380,.T.);
#2400=ORIENTED_EDGE('',*,*,#2390,.T.);
#2410=ORIENTED_EDGE('',*,*,#940,.T.);
#2420=ORIENTED_EDGE('',*,*,#1880,.T.);
#2430=ORIENTED_EDGE('',*,*,#460,.T.);
#2440=EDGE_LOOP('',(#2430,#2420,#2410,#2400));
#2450=FACE_OUTER_BOUND('',#2440,.T.);
#2460=ADVANCED_FACE('',(#2450),#2340,.T.);
#2470=CARTESIAN_POINT('',(-6.99999999999998,-10.,-10.));
#2480=DIRECTION('',(-1.,2.22044604925031E-16,0.));
#2490=DIRECTION('',(2.22044604925031E-16,1.,0.));
#2500=AXIS2_PLACEMENT_3D('',#2470,#2480,#2490);
#2510=PLANE('',#2500);
#2520=CARTESIAN_POINT('',(-6.99999999999998,-9.9,-10.));
#2530=DIRECTION('',(0.,0.,1.));
#2540=VECTOR('',#2530,1.);
#2550=LINE('',#2520,#2540);
#2560=EDGE_CURVE('',#1010,#290,#2550,.T.);
#2570=ORIENTED_EDGE('',*,*,#2560,.T.);
#2580=ORIENTED_EDGE('',*,*,#1020,.T.);
#2590=ORIENTED_EDGE('',*,*,#2390,.F.);
#2600=ORIENTED_EDGE('',*,*,#380,.T.);
#2610=EDGE_LOOP('',(#2600,#2590,#2580,#2570));
#2620=FACE_OUTER_BOUND('',#2610,.T.);
#2630=ADVANCED_FACE('',(#2620),#2510,.T.);
#2640=CARTESIAN_POINT('',(-2.1,-9.9,-10.));
#2650=DIRECTION('',(-2.22044604925031E-16,-1.,0.));
#2660=DIRECTION('',(1.,-2.22044604925031E-16,0.));
#2670=AXIS2_PLACEMENT_3D('',#2640,#2650,#2660);
#2680=PLANE('',#2670);
#2690=ORIENTED_EDGE('',*,*,#1780,.T.);
#2700=ORIENTED_EDGE('',*,*,#1100,.T.);
#2710=ORIENTED_EDGE('',*,*,#2560,.F.);
#2720=ORIENTED_EDGE('',*,*,#300,.T.);
#2730=EDGE_LOOP('',(#2720,#2710,#2700,#2690));
#2740=FACE_OUTER_BOUND('',#2730,.T.);
#2750=ADVANCED_FACE('',(#2740),#2680,.T.);
#2760=CLOSED_SHELL('',(#720,#1440,#1660,#1830,#2000,#2170,#2290,#2460,
#2630,#2750));
#2770=MANIFOLD_SOLID_BREP('',#2760);
#2780=CARTESIAN_POINT('',(0.,0.,0.));
#2790=DIRECTION('',(0.,0.,1.));
#2800=DIRECTION('',(1.,0.,0.));
#2810=AXIS2_PLACEMENT_3D('',#2780,#2790,#2800);
#2820=APPLICATION_CONTEXT(' ');
#2830=APPLICATION_PROTOCOL_DEFINITION(' ','automotive_design',1998,#2820
);
#2840=PRODUCT_CONTEXT('',#2820,'mechanical');
#2850=PRODUCT_DEFINITION_CONTEXT('part definition',#2820,'design');
#2860=PRODUCT(
'Klemmschienenprofil-MMS-44_19864x3000mm_44.0125.1_PX173035',
'Klemmschienenprofil-MMS-44_19864x3000mm_44.0125.1_PX173035','',(#2840))
;
#2870=PRODUCT_RELATED_PRODUCT_CATEGORY('part',' ',(#2860));
#2880=PRODUCT_DEFINITION_FORMATION_WITH_SPECIFIED_SOURCE('','',#2860,
.BOUGHT.);
#2890=PRODUCT_DEFINITION('',' ',#2880,#2850);
#2900=PRODUCT_DEFINITION_SHAPE('','',#2890);
#2910=DIMENSIONAL_EXPONENTS(1.,0.,0.,0.,0.,0.,0.);
#2920=DIMENSIONAL_EXPONENTS(0.,0.,0.,0.,0.,0.,0.);
#2930=DIMENSIONAL_EXPONENTS(0.,0.,0.,0.,0.,0.,0.);
#2940=(LENGTH_UNIT() NAMED_UNIT(*) SI_UNIT(.MILLI.,.METRE.));
#2950=(NAMED_UNIT(*) PLANE_ANGLE_UNIT() SI_UNIT($,.RADIAN.));
#2960=(NAMED_UNIT(*) SI_UNIT($,.STERADIAN.) SOLID_ANGLE_UNIT());
#2970=(GEOMETRIC_REPRESENTATION_CONTEXT(3) 
GLOBAL_UNCERTAINTY_ASSIGNED_CONTEXT((#2980)) 
GLOBAL_UNIT_ASSIGNED_CONTEXT((#2940,#2950,#2960)) REPRESENTATION_CONTEXT
('',''));
#2980=UNCERTAINTY_MEASURE_WITH_UNIT(LENGTH_MEASURE(1.E-6),#2940,
'distance_accuracy_value','maximum gap value');
#2990=ADVANCED_BREP_SHAPE_REPRESENTATION('',(#2810,#2770),#2970);
#3000=SHAPE_DEFINITION_REPRESENTATION(#2900,#2990);
#3010=COLOUR_RGB('',0.690196096897125,0.886274576187134,1.);
#3020=FILL_AREA_STYLE_COLOUR('',#3010);
#3030=FILL_AREA_STYLE('',(#3020));
#3040=SURFACE_STYLE_FILL_AREA(#3030);
#3050=SURFACE_SIDE_STYLE('',(#3040));
#3060=SURFACE_STYLE_USAGE(.BOTH.,#3050);
#3070=PRESENTATION_STYLE_ASSIGNMENT((#3060));
#3080=STYLED_ITEM('',(#3070),#2770);
#3090=DRAUGHTING_MODEL('',(#3080),#2970);
#3100=CARTESIAN_POINT('',(19.9000000000001,22.,10.));
#3110=DIRECTION('',(-3.4410713482206E-22,-3.44107134822059E-22,1.));
#3120=DIRECTION('',(0.,1.,3.44107134822059E-22));
#3130=AXIS2_PLACEMENT_3D('',#3100,#3110,#3120);
#3140=ITEM_DEFINED_TRANSFORMATION(
'Klemmschienenprofil-MMS-44_19864x3000mm_44.0125.1_PX173035','',#2810,
#3130);
#3150=APPLICATION_CONTEXT(' ');
#3160=APPLICATION_PROTOCOL_DEFINITION(' ','automotive_design',1998,#3150
);
#3170=PRODUCT_CONTEXT('',#3150,'mechanical');
#3180=PRODUCT_DEFINITION_CONTEXT('part definition',#3150,'design');
#3190=PRODUCT(
'Klemmschienenprofil-MMS-44_19864x3000mm_44.0125.1_PX173035',
'Klemmschienenprofil-MMS-44_19864x3000mm_44.0125.1_PX173035','',(#3170))
;
#3200=PRODUCT_RELATED_PRODUCT_CATEGORY('part',' ',(#3190));
#3210=PRODUCT_DEFINITION_FORMATION_WITH_SPECIFIED_SOURCE('','',#3190,
.BOUGHT.);
#3220=PRODUCT_DEFINITION('',' ',#3210,#3180);
#3230=PRODUCT_DEFINITION_SHAPE('','',#3220);
#3240=DIMENSIONAL_EXPONENTS(1.,0.,0.,0.,0.,0.,0.);
#3250=DIMENSIONAL_EXPONENTS(0.,0.,0.,0.,0.,0.,0.);
#3260=DIMENSIONAL_EXPONENTS(0.,0.,0.,0.,0.,0.,0.);
#3270=(LENGTH_UNIT() NAMED_UNIT(*) SI_UNIT(.MILLI.,.METRE.));
#3280=(NAMED_UNIT(*) PLANE_ANGLE_UNIT() SI_UNIT($,.RADIAN.));
#3290=(NAMED_UNIT(*) SI_UNIT($,.STERADIAN.) SOLID_ANGLE_UNIT());
#3300=(GEOMETRIC_REPRESENTATION_CONTEXT(3) 
GLOBAL_UNCERTAINTY_ASSIGNED_CONTEXT((#3310)) 
GLOBAL_UNIT_ASSIGNED_CONTEXT((#3270,#3280,#3290)) REPRESENTATION_CONTEXT
('',''));
#3310=UNCERTAINTY_MEASURE_WITH_UNIT(LENGTH_MEASURE(1.E-6),#3270,
'distance_accuracy_value','maximum gap value');
#3320=SHAPE_REPRESENTATION('',(#2810,#3130),#3300);
#3330=SHAPE_DEFINITION_REPRESENTATION(#3230,#3320);
#3340=(REPRESENTATION_RELATIONSHIP('','',#2990,#3320) 
REPRESENTATION_RELATIONSHIP_WITH_TRANSFORMATION(#3140) 
SHAPE_REPRESENTATION_RELATIONSHIP());
#3350=NEXT_ASSEMBLY_USAGE_OCCURRENCE('1','',
'Klemmschienenprofil-MMS-44_19864x3000mm_44.0125.1_PX173035',#3220,#2890
,'');
#3360=PRODUCT_DEFINITION_SHAPE('','',#3350);
#3370=CONTEXT_DEPENDENT_SHAPE_REPRESENTATION(#3340,#3360);
ENDSEC;
END-ISO-10303-21;
