ISO-10303-21;
HEADER;
FILE_DESCRIPTION(('Creo Elements/Direct Modeling STEP Export'),'2;1');
FILE_NAME(
'//KR-CAD2/PhoenixTemp/karl.letzgus/Konvertierung/44.0125_Profilkernmate
rial-MMS-44_22x22mm-mit-Bohrung.stp','2022-03-21T 8:56:48',(''),(''),
'PTC Creo Elements/Direct Modeling STEP processor for AP214 (Solid Model
)',
'PTC Creo Elements/Direct Modeling 19.0C  15-Aug-2015 (C) Parametric Tec
hnology GmbH','');
FILE_SCHEMA(('AUTOMOTIVE_DESIGN { 1 0 10303 214 1 1 1 1 }'));
ENDSEC;
DATA;
#10=CARTESIAN_POINT('',(0.,0.,0.));
#20=DIRECTION('',(0.,0.,1.));
#30=DIRECTION('',(1.,0.,0.));
#40=AXIS2_PLACEMENT_3D('',#10,#20,#30);
#50=PLANE('',#40);
#60=CARTESIAN_POINT('',(11.,-11.,0.));
#70=DIRECTION('',(0.,0.,1.));
#80=DIRECTION('',(1.,0.,0.));
#90=AXIS2_PLACEMENT_3D('',#60,#70,#80);
#100=CIRCLE('',#90,5.);
#110=CARTESIAN_POINT('',(16.,-11.,0.));
#120=VERTEX_POINT('',#110);
#130=CARTESIAN_POINT('',(6.,-11.,0.));
#140=VERTEX_POINT('',#130);
#150=EDGE_CURVE('',#120,#140,#100,.T.);
#160=ORIENTED_EDGE('',*,*,#150,.T.);
#170=EDGE_CURVE('',#140,#120,#100,.T.);
#180=ORIENTED_EDGE('',*,*,#170,.T.);
#190=EDGE_LOOP('',(#180,#160));
#200=FACE_BOUND('',#190,.T.);
#210=CARTESIAN_POINT('',(22.,-22.,0.));
#220=DIRECTION('',(-1.,0.,0.));
#230=VECTOR('',#220,1.);
#240=LINE('',#210,#230);
#250=CARTESIAN_POINT('',(22.,-22.,0.));
#260=VERTEX_POINT('',#250);
#270=CARTESIAN_POINT('',(0.,-22.,0.));
#280=VERTEX_POINT('',#270);
#290=EDGE_CURVE('',#260,#280,#240,.T.);
#300=ORIENTED_EDGE('',*,*,#290,.T.);
#310=CARTESIAN_POINT('',(22.,0.,0.));
#320=DIRECTION('',(0.,-1.,0.));
#330=VECTOR('',#320,1.);
#340=LINE('',#310,#330);
#350=CARTESIAN_POINT('',(22.,0.,0.));
#360=VERTEX_POINT('',#350);
#370=EDGE_CURVE('',#360,#260,#340,.T.);
#380=ORIENTED_EDGE('',*,*,#370,.T.);
#390=CARTESIAN_POINT('',(0.,0.,0.));
#400=DIRECTION('',(1.,0.,0.));
#410=VECTOR('',#400,1.);
#420=LINE('',#390,#410);
#430=CARTESIAN_POINT('',(0.,0.,0.));
#440=VERTEX_POINT('',#430);
#450=EDGE_CURVE('',#440,#360,#420,.T.);
#460=ORIENTED_EDGE('',*,*,#450,.T.);
#470=CARTESIAN_POINT('',(0.,-22.,0.));
#480=DIRECTION('',(0.,1.,0.));
#490=VECTOR('',#480,1.);
#500=LINE('',#470,#490);
#510=EDGE_CURVE('',#280,#440,#500,.T.);
#520=ORIENTED_EDGE('',*,*,#510,.T.);
#530=EDGE_LOOP('',(#520,#460,#380,#300));
#540=FACE_OUTER_BOUND('',#530,.T.);
#550=ADVANCED_FACE('',(#200,#540),#50,.F.);
#560=CARTESIAN_POINT('',(0.,0.,100.));
#570=DIRECTION('',(0.,0.,1.));
#580=DIRECTION('',(1.,0.,0.));
#590=AXIS2_PLACEMENT_3D('',#560,#570,#580);
#600=PLANE('',#590);
#610=CARTESIAN_POINT('',(11.,-11.,100.));
#620=DIRECTION('',(0.,0.,1.));
#630=DIRECTION('',(1.,0.,0.));
#640=AXIS2_PLACEMENT_3D('',#610,#620,#630);
#650=CIRCLE('',#640,5.);
#660=CARTESIAN_POINT('',(16.,-11.,100.));
#670=VERTEX_POINT('',#660);
#680=CARTESIAN_POINT('',(6.,-11.,100.));
#690=VERTEX_POINT('',#680);
#700=EDGE_CURVE('',#670,#690,#650,.T.);
#710=ORIENTED_EDGE('',*,*,#700,.F.);
#720=EDGE_CURVE('',#690,#670,#650,.T.);
#730=ORIENTED_EDGE('',*,*,#720,.F.);
#740=EDGE_LOOP('',(#730,#710));
#750=FACE_BOUND('',#740,.T.);
#760=CARTESIAN_POINT('',(0.,-22.,100.));
#770=DIRECTION('',(0.,1.,0.));
#780=VECTOR('',#770,1.);
#790=LINE('',#760,#780);
#800=CARTESIAN_POINT('',(0.,-22.,100.));
#810=VERTEX_POINT('',#800);
#820=CARTESIAN_POINT('',(0.,0.,100.));
#830=VERTEX_POINT('',#820);
#840=EDGE_CURVE('',#810,#830,#790,.T.);
#850=ORIENTED_EDGE('',*,*,#840,.F.);
#860=CARTESIAN_POINT('',(0.,0.,100.));
#870=DIRECTION('',(1.,0.,0.));
#880=VECTOR('',#870,1.);
#890=LINE('',#860,#880);
#900=CARTESIAN_POINT('',(22.,0.,100.));
#910=VERTEX_POINT('',#900);
#920=EDGE_CURVE('',#830,#910,#890,.T.);
#930=ORIENTED_EDGE('',*,*,#920,.F.);
#940=CARTESIAN_POINT('',(22.,0.,100.));
#950=DIRECTION('',(0.,-1.,0.));
#960=VECTOR('',#950,1.);
#970=LINE('',#940,#960);
#980=CARTESIAN_POINT('',(22.,-22.,100.));
#990=VERTEX_POINT('',#980);
#1000=EDGE_CURVE('',#910,#990,#970,.T.);
#1010=ORIENTED_EDGE('',*,*,#1000,.F.);
#1020=CARTESIAN_POINT('',(22.,-22.,100.));
#1030=DIRECTION('',(-1.,0.,0.));
#1040=VECTOR('',#1030,1.);
#1050=LINE('',#1020,#1040);
#1060=EDGE_CURVE('',#990,#810,#1050,.T.);
#1070=ORIENTED_EDGE('',*,*,#1060,.F.);
#1080=EDGE_LOOP('',(#1070,#1010,#930,#850));
#1090=FACE_OUTER_BOUND('',#1080,.T.);
#1100=ADVANCED_FACE('',(#750,#1090),#600,.T.);
#1110=CARTESIAN_POINT('',(22.,-22.,0.));
#1120=DIRECTION('',(-0.,-1.,-0.));
#1130=DIRECTION('',(-1.,0.,0.));
#1140=AXIS2_PLACEMENT_3D('',#1110,#1120,#1130);
#1150=PLANE('',#1140);
#1160=ORIENTED_EDGE('',*,*,#1060,.T.);
#1170=CARTESIAN_POINT('',(22.,-22.,0.));
#1180=DIRECTION('',(0.,0.,1.));
#1190=VECTOR('',#1180,1.);
#1200=LINE('',#1170,#1190);
#1210=EDGE_CURVE('',#260,#990,#1200,.T.);
#1220=ORIENTED_EDGE('',*,*,#1210,.T.);
#1230=ORIENTED_EDGE('',*,*,#290,.F.);
#1240=CARTESIAN_POINT('',(0.,-22.,0.));
#1250=DIRECTION('',(0.,0.,-1.));
#1260=VECTOR('',#1250,1.);
#1270=LINE('',#1240,#1260);
#1280=EDGE_CURVE('',#810,#280,#1270,.T.);
#1290=ORIENTED_EDGE('',*,*,#1280,.T.);
#1300=EDGE_LOOP('',(#1290,#1230,#1220,#1160));
#1310=FACE_OUTER_BOUND('',#1300,.T.);
#1320=ADVANCED_FACE('',(#1310),#1150,.T.);
#1330=CARTESIAN_POINT('',(22.,0.,0.));
#1340=DIRECTION('',(1.,0.,0.));
#1350=DIRECTION('',(0.,-1.,0.));
#1360=AXIS2_PLACEMENT_3D('',#1330,#1340,#1350);
#1370=PLANE('',#1360);
#1380=ORIENTED_EDGE('',*,*,#370,.F.);
#1390=ORIENTED_EDGE('',*,*,#1210,.F.);
#1400=ORIENTED_EDGE('',*,*,#1000,.T.);
#1410=CARTESIAN_POINT('',(22.,0.,0.));
#1420=DIRECTION('',(0.,0.,1.));
#1430=VECTOR('',#1420,1.);
#1440=LINE('',#1410,#1430);
#1450=EDGE_CURVE('',#360,#910,#1440,.T.);
#1460=ORIENTED_EDGE('',*,*,#1450,.T.);
#1470=EDGE_LOOP('',(#1460,#1400,#1390,#1380));
#1480=FACE_OUTER_BOUND('',#1470,.T.);
#1490=ADVANCED_FACE('',(#1480),#1370,.T.);
#1500=CARTESIAN_POINT('',(0.,0.,0.));
#1510=DIRECTION('',(-0.,1.,0.));
#1520=DIRECTION('',(1.,0.,0.));
#1530=AXIS2_PLACEMENT_3D('',#1500,#1510,#1520);
#1540=PLANE('',#1530);
#1550=ORIENTED_EDGE('',*,*,#450,.F.);
#1560=ORIENTED_EDGE('',*,*,#1450,.F.);
#1570=ORIENTED_EDGE('',*,*,#920,.T.);
#1580=CARTESIAN_POINT('',(0.,0.,0.));
#1590=DIRECTION('',(0.,0.,1.));
#1600=VECTOR('',#1590,1.);
#1610=LINE('',#1580,#1600);
#1620=EDGE_CURVE('',#440,#830,#1610,.T.);
#1630=ORIENTED_EDGE('',*,*,#1620,.T.);
#1640=EDGE_LOOP('',(#1630,#1570,#1560,#1550));
#1650=FACE_OUTER_BOUND('',#1640,.T.);
#1660=ADVANCED_FACE('',(#1650),#1540,.T.);
#1670=CARTESIAN_POINT('',(0.,-22.,0.));
#1680=DIRECTION('',(-1.,0.,0.));
#1690=DIRECTION('',(0.,1.,0.));
#1700=AXIS2_PLACEMENT_3D('',#1670,#1680,#1690);
#1710=PLANE('',#1700);
#1720=ORIENTED_EDGE('',*,*,#1620,.F.);
#1730=ORIENTED_EDGE('',*,*,#840,.T.);
#1740=ORIENTED_EDGE('',*,*,#1280,.F.);
#1750=ORIENTED_EDGE('',*,*,#510,.F.);
#1760=EDGE_LOOP('',(#1750,#1740,#1730,#1720));
#1770=FACE_OUTER_BOUND('',#1760,.T.);
#1780=ADVANCED_FACE('',(#1770),#1710,.T.);
#1790=CARTESIAN_POINT('',(11.,-11.,0.));
#1800=DIRECTION('',(0.,0.,1.));
#1810=DIRECTION('',(1.,0.,0.));
#1820=AXIS2_PLACEMENT_3D('',#1790,#1800,#1810);
#1830=CYLINDRICAL_SURFACE('',#1820,5.);
#1840=CARTESIAN_POINT('',(6.,-11.,0.));
#1850=DIRECTION('',(0.,0.,1.));
#1860=VECTOR('',#1850,1.);
#1870=LINE('',#1840,#1860);
#1880=EDGE_CURVE('',#140,#690,#1870,.T.);
#1890=ORIENTED_EDGE('',*,*,#1880,.T.);
#1900=ORIENTED_EDGE('',*,*,#170,.F.);
#1910=CARTESIAN_POINT('',(16.,-11.,0.));
#1920=DIRECTION('',(0.,0.,1.));
#1930=VECTOR('',#1920,1.);
#1940=LINE('',#1910,#1930);
#1950=EDGE_CURVE('',#120,#670,#1940,.T.);
#1960=ORIENTED_EDGE('',*,*,#1950,.F.);
#1970=ORIENTED_EDGE('',*,*,#720,.T.);
#1980=EDGE_LOOP('',(#1970,#1960,#1900,#1890));
#1990=FACE_OUTER_BOUND('',#1980,.T.);
#2000=ADVANCED_FACE('',(#1990),#1830,.F.);
#2010=CARTESIAN_POINT('',(11.,-11.,0.));
#2020=DIRECTION('',(0.,0.,1.));
#2030=DIRECTION('',(1.,0.,0.));
#2040=AXIS2_PLACEMENT_3D('',#2010,#2020,#2030);
#2050=CYLINDRICAL_SURFACE('',#2040,5.);
#2060=ORIENTED_EDGE('',*,*,#150,.F.);
#2070=ORIENTED_EDGE('',*,*,#1880,.F.);
#2080=ORIENTED_EDGE('',*,*,#700,.T.);
#2090=ORIENTED_EDGE('',*,*,#1950,.T.);
#2100=EDGE_LOOP('',(#2090,#2080,#2070,#2060));
#2110=FACE_OUTER_BOUND('',#2100,.T.);
#2120=ADVANCED_FACE('',(#2110),#2050,.F.);
#2130=CLOSED_SHELL('',(#1320,#1490,#1660,#1780,#2000,#2120,#1100,#550));
#2140=MANIFOLD_SOLID_BREP('',#2130);
#2150=CARTESIAN_POINT('',(0.,0.,0.));
#2160=DIRECTION('',(0.,0.,1.));
#2170=DIRECTION('',(1.,0.,0.));
#2180=AXIS2_PLACEMENT_3D('',#2150,#2160,#2170);
#2190=APPLICATION_CONTEXT(' ');
#2200=APPLICATION_PROTOCOL_DEFINITION(' ','automotive_design',1998,#2190
);
#2210=PRODUCT_CONTEXT('',#2190,'mechanical');
#2220=PRODUCT_DEFINITION_CONTEXT('part definition',#2190,'design');
#2230=PRODUCT(
'Profilkernmaterial-MMS-44_22x22mm-mit-Bohrung_44.0125_PX173023',
'Profilkernmaterial-MMS-44_22x22mm-mit-Bohrung_44.0125_PX173023','',(
#2210));
#2240=PRODUCT_RELATED_PRODUCT_CATEGORY('part',' ',(#2230));
#2250=PRODUCT_DEFINITION_FORMATION_WITH_SPECIFIED_SOURCE('','',#2230,
.BOUGHT.);
#2260=PRODUCT_DEFINITION('',' ',#2250,#2220);
#2270=PRODUCT_DEFINITION_SHAPE('','',#2260);
#2280=DIMENSIONAL_EXPONENTS(1.,0.,0.,0.,0.,0.,0.);
#2290=DIMENSIONAL_EXPONENTS(0.,0.,0.,0.,0.,0.,0.);
#2300=DIMENSIONAL_EXPONENTS(0.,0.,0.,0.,0.,0.,0.);
#2310=(LENGTH_UNIT() NAMED_UNIT(*) SI_UNIT(.MILLI.,.METRE.));
#2320=(NAMED_UNIT(*) PLANE_ANGLE_UNIT() SI_UNIT($,.RADIAN.));
#2330=(NAMED_UNIT(*) SI_UNIT($,.STERADIAN.) SOLID_ANGLE_UNIT());
#2340=(GEOMETRIC_REPRESENTATION_CONTEXT(3) 
GLOBAL_UNCERTAINTY_ASSIGNED_CONTEXT((#2350)) 
GLOBAL_UNIT_ASSIGNED_CONTEXT((#2310,#2320,#2330)) REPRESENTATION_CONTEXT
('',''));
#2350=UNCERTAINTY_MEASURE_WITH_UNIT(LENGTH_MEASURE(1.E-6),#2310,
'distance_accuracy_value','maximum gap value');
#2360=ADVANCED_BREP_SHAPE_REPRESENTATION('',(#2180,#2140),#2340);
#2370=SHAPE_DEFINITION_REPRESENTATION(#2270,#2360);
#2380=COLOUR_RGB('',0.580392181873322,0.572549045085907,
0.580392181873322);
#2390=FILL_AREA_STYLE_COLOUR('',#2380);
#2400=FILL_AREA_STYLE('',(#2390));
#2410=SURFACE_STYLE_FILL_AREA(#2400);
#2420=SURFACE_SIDE_STYLE('',(#2410));
#2430=SURFACE_STYLE_USAGE(.BOTH.,#2420);
#2440=PRESENTATION_STYLE_ASSIGNMENT((#2430));
#2450=STYLED_ITEM('',(#2440),#2140);
#2460=DRAUGHTING_MODEL('',(#2450),#2340);
#2470=CARTESIAN_POINT('',(10.,32.,0.));
#2480=DIRECTION('',(0.,0.,1.));
#2490=DIRECTION('',(1.,0.,0.));
#2500=AXIS2_PLACEMENT_3D('',#2470,#2480,#2490);
#2510=ITEM_DEFINED_TRANSFORMATION(
'Profilkernmaterial-MMS-44_22x22mm-mit-Bohrung_44.0125_PX173023','',
#2180,#2500);
#2520=APPLICATION_CONTEXT(' ');
#2530=APPLICATION_PROTOCOL_DEFINITION(' ','automotive_design',1998,#2520
);
#2540=PRODUCT_CONTEXT('',#2520,'mechanical');
#2550=PRODUCT_DEFINITION_CONTEXT('part definition',#2520,'design');
#2560=PRODUCT(
'Profilkernmaterial-MMS-44_22x22mm-mit-Bohrung_44.0125_PX173023',
'Profilkernmaterial-MMS-44_22x22mm-mit-Bohrung_44.0125_PX173023','',(
#2540));
#2570=PRODUCT_RELATED_PRODUCT_CATEGORY('part',' ',(#2560));
#2580=PRODUCT_DEFINITION_FORMATION_WITH_SPECIFIED_SOURCE('','',#2560,
.BOUGHT.);
#2590=PRODUCT_DEFINITION('',' ',#2580,#2550);
#2600=PRODUCT_DEFINITION_SHAPE('','',#2590);
#2610=DIMENSIONAL_EXPONENTS(1.,0.,0.,0.,0.,0.,0.);
#2620=DIMENSIONAL_EXPONENTS(0.,0.,0.,0.,0.,0.,0.);
#2630=DIMENSIONAL_EXPONENTS(0.,0.,0.,0.,0.,0.,0.);
#2640=(LENGTH_UNIT() NAMED_UNIT(*) SI_UNIT(.MILLI.,.METRE.));
#2650=(NAMED_UNIT(*) PLANE_ANGLE_UNIT() SI_UNIT($,.RADIAN.));
#2660=(NAMED_UNIT(*) SI_UNIT($,.STERADIAN.) SOLID_ANGLE_UNIT());
#2670=(GEOMETRIC_REPRESENTATION_CONTEXT(3) 
GLOBAL_UNCERTAINTY_ASSIGNED_CONTEXT((#2680)) 
GLOBAL_UNIT_ASSIGNED_CONTEXT((#2640,#2650,#2660)) REPRESENTATION_CONTEXT
('',''));
#2680=UNCERTAINTY_MEASURE_WITH_UNIT(LENGTH_MEASURE(1.E-6),#2640,
'distance_accuracy_value','maximum gap value');
#2690=SHAPE_REPRESENTATION('',(#2180,#2500),#2670);
#2700=SHAPE_DEFINITION_REPRESENTATION(#2600,#2690);
#2710=(REPRESENTATION_RELATIONSHIP('','',#2360,#2690) 
REPRESENTATION_RELATIONSHIP_WITH_TRANSFORMATION(#2510) 
SHAPE_REPRESENTATION_RELATIONSHIP());
#2720=NEXT_ASSEMBLY_USAGE_OCCURRENCE('1','',
'Profilkernmaterial-MMS-44_22x22mm-mit-Bohrung_44.0125_PX173023',#2590,
#2260,'');
#2730=PRODUCT_DEFINITION_SHAPE('','',#2720);
#2740=CONTEXT_DEPENDENT_SHAPE_REPRESENTATION(#2710,#2730);
ENDSEC;
END-ISO-10303-21;
