ISO-10303-21;
HEADER;
FILE_DESCRIPTION(('Creo Elements/Direct Modeling STEP Export'),'2;1');
FILE_NAME(
'//KR-CAD2/PhoenixTemp/karl.letzgus/Konvertierung/44.0180.13_Winkelplatt
e-MMS-44_3mm-chem-vernickelt.stp','2022-03-21T 8:57:16',(''),(''),
'PTC Creo Elements/Direct Modeling STEP processor for AP214 (Solid Model
)',
'PTC Creo Elements/Direct Modeling 19.0C  15-Aug-2015 (C) Parametric Tec
hnology GmbH','');
FILE_SCHEMA(('AUTOMOTIVE_DESIGN { 1 0 10303 214 1 1 1 1 }'));
ENDSEC;
DATA;
#10=CARTESIAN_POINT('',(0.,0.,2.5));
#20=DIRECTION('',(0.,0.,1.));
#30=DIRECTION('',(1.,0.,0.));
#40=AXIS2_PLACEMENT_3D('',#10,#20,#30);
#50=PLANE('',#40);
#60=CARTESIAN_POINT('',(56.,67.,2.5));
#70=DIRECTION('',(0.,0.,1.));
#80=DIRECTION('',(1.,0.,0.));
#90=AXIS2_PLACEMENT_3D('',#60,#70,#80);
#100=CIRCLE('',#90,4.5);
#110=CARTESIAN_POINT('',(60.5,67.,2.5));
#120=VERTEX_POINT('',#110);
#130=CARTESIAN_POINT('',(51.5,67.,2.5));
#140=VERTEX_POINT('',#130);
#150=EDGE_CURVE('',#120,#140,#100,.T.);
#160=ORIENTED_EDGE('',*,*,#150,.F.);
#170=EDGE_CURVE('',#140,#120,#100,.T.);
#180=ORIENTED_EDGE('',*,*,#170,.F.);
#190=EDGE_LOOP('',(#180,#160));
#200=FACE_BOUND('',#190,.T.);
#210=CARTESIAN_POINT('',(18.5,17.0000000000001,2.5));
#220=DIRECTION('',(0.,0.,1.));
#230=DIRECTION('',(1.,0.,0.));
#240=AXIS2_PLACEMENT_3D('',#210,#220,#230);
#250=CIRCLE('',#240,4.5);
#260=CARTESIAN_POINT('',(23.,17.0000000000001,2.5));
#270=VERTEX_POINT('',#260);
#280=CARTESIAN_POINT('',(14.,17.0000000000001,2.5));
#290=VERTEX_POINT('',#280);
#300=EDGE_CURVE('',#270,#290,#250,.T.);
#310=ORIENTED_EDGE('',*,*,#300,.F.);
#320=EDGE_CURVE('',#290,#270,#250,.T.);
#330=ORIENTED_EDGE('',*,*,#320,.F.);
#340=EDGE_LOOP('',(#330,#310));
#350=FACE_BOUND('',#340,.T.);
#360=CARTESIAN_POINT('',(93.5,17.,2.5));
#370=DIRECTION('',(0.,0.,1.));
#380=DIRECTION('',(1.,0.,0.));
#390=AXIS2_PLACEMENT_3D('',#360,#370,#380);
#400=CIRCLE('',#390,4.5);
#410=CARTESIAN_POINT('',(98.,17.,2.5));
#420=VERTEX_POINT('',#410);
#430=CARTESIAN_POINT('',(89.,17.,2.5));
#440=VERTEX_POINT('',#430);
#450=EDGE_CURVE('',#420,#440,#400,.T.);
#460=ORIENTED_EDGE('',*,*,#450,.F.);
#470=EDGE_CURVE('',#440,#420,#400,.T.);
#480=ORIENTED_EDGE('',*,*,#470,.F.);
#490=EDGE_LOOP('',(#480,#460));
#500=FACE_BOUND('',#490,.T.);
#510=CARTESIAN_POINT('',(107.339745962156,5.,2.5));
#520=DIRECTION('',(0.,0.,-1.));
#530=DIRECTION('',(-1.,0.,0.));
#540=AXIS2_PLACEMENT_3D('',#510,#520,#530);
#550=CIRCLE('',#540,5.);
#560=CARTESIAN_POINT('',(111.669872981078,7.50000000000001,2.5));
#570=VERTEX_POINT('',#560);
#580=CARTESIAN_POINT('',(107.339745962156,8.88178419700125E-16,2.5));
#590=VERTEX_POINT('',#580);
#600=EDGE_CURVE('',#570,#590,#550,.T.);
#610=ORIENTED_EDGE('',*,*,#600,.F.);
#620=CARTESIAN_POINT('',(0.,0.,2.5));
#630=DIRECTION('',(1.,0.,0.));
#640=VECTOR('',#630,1.);
#650=LINE('',#620,#640);
#660=CARTESIAN_POINT('',(4.6602540378444,0.,2.5));
#670=VERTEX_POINT('',#660);
#680=EDGE_CURVE('',#670,#590,#650,.T.);
#690=ORIENTED_EDGE('',*,*,#680,.T.);
#700=CARTESIAN_POINT('',(4.66025403784439,5.,2.5));
#710=DIRECTION('',(0.,0.,-1.));
#720=DIRECTION('',(-1.,0.,0.));
#730=AXIS2_PLACEMENT_3D('',#700,#710,#720);
#740=CIRCLE('',#730,5.);
#750=CARTESIAN_POINT('',(0.330127018922202,7.5,2.5));
#760=VERTEX_POINT('',#750);
#770=EDGE_CURVE('',#670,#760,#740,.T.);
#780=ORIENTED_EDGE('',*,*,#770,.F.);
#790=CARTESIAN_POINT('',(-3.99999999999999,0.,2.5));
#800=DIRECTION('',(0.5,0.866025403784439,0.));
#810=VECTOR('',#800,1.);
#820=LINE('',#790,#810);
#830=CARTESIAN_POINT('',(41.8993464005753,79.5,2.5));
#840=VERTEX_POINT('',#830);
#850=EDGE_CURVE('',#760,#840,#820,.T.);
#860=ORIENTED_EDGE('',*,*,#850,.F.);
#870=CARTESIAN_POINT('',(46.2294734194975,77.,2.5));
#880=DIRECTION('',(0.,0.,1.));
#890=DIRECTION('',(1.,0.,0.));
#900=AXIS2_PLACEMENT_3D('',#870,#880,#890);
#910=CIRCLE('',#900,5.);
#920=CARTESIAN_POINT('',(46.2294734194975,82.,2.5));
#930=VERTEX_POINT('',#920);
#940=EDGE_CURVE('',#930,#840,#910,.T.);
#950=ORIENTED_EDGE('',*,*,#940,.T.);
#960=CARTESIAN_POINT('',(47.3427220735494,82.,2.5));
#970=DIRECTION('',(1.,0.,0.));
#980=VECTOR('',#970,1.);
#990=LINE('',#960,#980);
#1000=CARTESIAN_POINT('',(65.7705265805024,82.,2.5));
#1010=VERTEX_POINT('',#1000);
#1020=EDGE_CURVE('',#930,#1010,#990,.T.);
#1030=ORIENTED_EDGE('',*,*,#1020,.F.);
#1040=CARTESIAN_POINT('',(65.7705265805024,77.,2.5));
#1050=DIRECTION('',(0.,0.,-1.));
#1060=DIRECTION('',(-1.,0.,0.));
#1070=AXIS2_PLACEMENT_3D('',#1040,#1050,#1060);
#1080=CIRCLE('',#1070,5.);
#1090=CARTESIAN_POINT('',(70.1006535994246,79.5,2.5));
#1100=VERTEX_POINT('',#1090);
#1110=EDGE_CURVE('',#1010,#1100,#1080,.T.);
#1120=ORIENTED_EDGE('',*,*,#1110,.F.);
#1130=CARTESIAN_POINT('',(116.,0.,2.5));
#1140=DIRECTION('',(0.500000000000001,-0.866025403784438,0.));
#1150=VECTOR('',#1140,1.);
#1160=LINE('',#1130,#1150);
#1170=EDGE_CURVE('',#1100,#570,#1160,.T.);
#1180=ORIENTED_EDGE('',*,*,#1170,.F.);
#1190=EDGE_LOOP('',(#1180,#1120,#1030,#950,#860,#780,#690,#610));
#1200=FACE_OUTER_BOUND('',#1190,.T.);
#1210=ADVANCED_FACE('',(#200,#350,#500,#1200),#50,.T.);
#1220=CARTESIAN_POINT('',(0.,0.,-0.5));
#1230=DIRECTION('',(0.,0.,1.));
#1240=DIRECTION('',(1.,0.,0.));
#1250=AXIS2_PLACEMENT_3D('',#1220,#1230,#1240);
#1260=PLANE('',#1250);
#1270=CARTESIAN_POINT('',(56.,67.,-0.5));
#1280=DIRECTION('',(0.,0.,1.));
#1290=DIRECTION('',(1.,0.,0.));
#1300=AXIS2_PLACEMENT_3D('',#1270,#1280,#1290);
#1310=CIRCLE('',#1300,4.5);
#1320=CARTESIAN_POINT('',(60.5,67.,-0.5));
#1330=VERTEX_POINT('',#1320);
#1340=CARTESIAN_POINT('',(51.5,67.,-0.5));
#1350=VERTEX_POINT('',#1340);
#1360=EDGE_CURVE('',#1330,#1350,#1310,.T.);
#1370=ORIENTED_EDGE('',*,*,#1360,.T.);
#1380=EDGE_CURVE('',#1350,#1330,#1310,.T.);
#1390=ORIENTED_EDGE('',*,*,#1380,.T.);
#1400=EDGE_LOOP('',(#1390,#1370));
#1410=FACE_BOUND('',#1400,.T.);
#1420=CARTESIAN_POINT('',(18.5,17.0000000000001,-0.5));
#1430=DIRECTION('',(0.,0.,1.));
#1440=DIRECTION('',(1.,0.,0.));
#1450=AXIS2_PLACEMENT_3D('',#1420,#1430,#1440);
#1460=CIRCLE('',#1450,4.5);
#1470=CARTESIAN_POINT('',(23.,17.0000000000001,-0.5));
#1480=VERTEX_POINT('',#1470);
#1490=CARTESIAN_POINT('',(14.,17.0000000000001,-0.5));
#1500=VERTEX_POINT('',#1490);
#1510=EDGE_CURVE('',#1480,#1500,#1460,.T.);
#1520=ORIENTED_EDGE('',*,*,#1510,.T.);
#1530=EDGE_CURVE('',#1500,#1480,#1460,.T.);
#1540=ORIENTED_EDGE('',*,*,#1530,.T.);
#1550=EDGE_LOOP('',(#1540,#1520));
#1560=FACE_BOUND('',#1550,.T.);
#1570=CARTESIAN_POINT('',(93.5,17.,-0.5));
#1580=DIRECTION('',(0.,0.,1.));
#1590=DIRECTION('',(1.,0.,0.));
#1600=AXIS2_PLACEMENT_3D('',#1570,#1580,#1590);
#1610=CIRCLE('',#1600,4.5);
#1620=CARTESIAN_POINT('',(98.,17.,-0.5));
#1630=VERTEX_POINT('',#1620);
#1640=CARTESIAN_POINT('',(89.,17.,-0.5));
#1650=VERTEX_POINT('',#1640);
#1660=EDGE_CURVE('',#1630,#1650,#1610,.T.);
#1670=ORIENTED_EDGE('',*,*,#1660,.T.);
#1680=EDGE_CURVE('',#1650,#1630,#1610,.T.);
#1690=ORIENTED_EDGE('',*,*,#1680,.T.);
#1700=EDGE_LOOP('',(#1690,#1670));
#1710=FACE_BOUND('',#1700,.T.);
#1720=CARTESIAN_POINT('',(65.7705265805024,77.,-0.5));
#1730=DIRECTION('',(0.,0.,-1.));
#1740=DIRECTION('',(-1.,0.,0.));
#1750=AXIS2_PLACEMENT_3D('',#1720,#1730,#1740);
#1760=CIRCLE('',#1750,5.);
#1770=CARTESIAN_POINT('',(65.7705265805024,82.,-0.5));
#1780=VERTEX_POINT('',#1770);
#1790=CARTESIAN_POINT('',(70.1006535994246,79.5,-0.5));
#1800=VERTEX_POINT('',#1790);
#1810=EDGE_CURVE('',#1780,#1800,#1760,.T.);
#1820=ORIENTED_EDGE('',*,*,#1810,.T.);
#1830=CARTESIAN_POINT('',(47.3427220735494,82.,-0.5));
#1840=DIRECTION('',(1.,0.,0.));
#1850=VECTOR('',#1840,1.);
#1860=LINE('',#1830,#1850);
#1870=CARTESIAN_POINT('',(46.2294734194975,82.,-0.5));
#1880=VERTEX_POINT('',#1870);
#1890=EDGE_CURVE('',#1880,#1780,#1860,.T.);
#1900=ORIENTED_EDGE('',*,*,#1890,.T.);
#1910=CARTESIAN_POINT('',(46.2294734194975,77.,-0.5));
#1920=DIRECTION('',(0.,0.,1.));
#1930=DIRECTION('',(1.,0.,0.));
#1940=AXIS2_PLACEMENT_3D('',#1910,#1920,#1930);
#1950=CIRCLE('',#1940,5.);
#1960=CARTESIAN_POINT('',(41.8993464005753,79.5,-0.5));
#1970=VERTEX_POINT('',#1960);
#1980=EDGE_CURVE('',#1880,#1970,#1950,.T.);
#1990=ORIENTED_EDGE('',*,*,#1980,.F.);
#2000=CARTESIAN_POINT('',(-3.99999999999999,0.,-0.5));
#2010=DIRECTION('',(0.5,0.866025403784439,0.));
#2020=VECTOR('',#2010,1.);
#2030=LINE('',#2000,#2020);
#2040=CARTESIAN_POINT('',(0.330127018922202,7.5,-0.5));
#2050=VERTEX_POINT('',#2040);
#2060=EDGE_CURVE('',#2050,#1970,#2030,.T.);
#2070=ORIENTED_EDGE('',*,*,#2060,.T.);
#2080=CARTESIAN_POINT('',(4.66025403784439,5.,-0.5));
#2090=DIRECTION('',(0.,0.,-1.));
#2100=DIRECTION('',(-1.,0.,0.));
#2110=AXIS2_PLACEMENT_3D('',#2080,#2090,#2100);
#2120=CIRCLE('',#2110,5.);
#2130=CARTESIAN_POINT('',(4.6602540378444,0.,-0.5));
#2140=VERTEX_POINT('',#2130);
#2150=EDGE_CURVE('',#2140,#2050,#2120,.T.);
#2160=ORIENTED_EDGE('',*,*,#2150,.T.);
#2170=CARTESIAN_POINT('',(0.,0.,-0.5));
#2180=DIRECTION('',(1.,0.,0.));
#2190=VECTOR('',#2180,1.);
#2200=LINE('',#2170,#2190);
#2210=CARTESIAN_POINT('',(107.339745962156,8.88178419700125E-16,-0.5));
#2220=VERTEX_POINT('',#2210);
#2230=EDGE_CURVE('',#2140,#2220,#2200,.T.);
#2240=ORIENTED_EDGE('',*,*,#2230,.F.);
#2250=CARTESIAN_POINT('',(107.339745962156,5.,-0.5));
#2260=DIRECTION('',(0.,0.,-1.));
#2270=DIRECTION('',(-1.,0.,0.));
#2280=AXIS2_PLACEMENT_3D('',#2250,#2260,#2270);
#2290=CIRCLE('',#2280,5.);
#2300=CARTESIAN_POINT('',(111.669872981078,7.50000000000001,-0.5));
#2310=VERTEX_POINT('',#2300);
#2320=EDGE_CURVE('',#2310,#2220,#2290,.T.);
#2330=ORIENTED_EDGE('',*,*,#2320,.T.);
#2340=CARTESIAN_POINT('',(116.,0.,-0.5));
#2350=DIRECTION('',(0.500000000000001,-0.866025403784438,0.));
#2360=VECTOR('',#2350,1.);
#2370=LINE('',#2340,#2360);
#2380=EDGE_CURVE('',#1800,#2310,#2370,.T.);
#2390=ORIENTED_EDGE('',*,*,#2380,.T.);
#2400=EDGE_LOOP('',(#2390,#2330,#2240,#2160,#2070,#1990,#1900,#1820));
#2410=FACE_OUTER_BOUND('',#2400,.T.);
#2420=ADVANCED_FACE('',(#1410,#1560,#1710,#2410),#1260,.F.);
#2430=CARTESIAN_POINT('',(93.5,17.,2.5));
#2440=DIRECTION('',(0.,0.,1.));
#2450=DIRECTION('',(1.,0.,0.));
#2460=AXIS2_PLACEMENT_3D('',#2430,#2440,#2450);
#2470=CYLINDRICAL_SURFACE('',#2460,4.5);
#2480=CARTESIAN_POINT('',(98.,17.,2.5));
#2490=DIRECTION('',(0.,0.,1.));
#2500=VECTOR('',#2490,1.);
#2510=LINE('',#2480,#2500);
#2520=EDGE_CURVE('',#1630,#420,#2510,.T.);
#2530=ORIENTED_EDGE('',*,*,#2520,.F.);
#2540=ORIENTED_EDGE('',*,*,#470,.T.);
#2550=CARTESIAN_POINT('',(89.,17.,2.5));
#2560=DIRECTION('',(0.,0.,1.));
#2570=VECTOR('',#2560,1.);
#2580=LINE('',#2550,#2570);
#2590=EDGE_CURVE('',#1650,#440,#2580,.T.);
#2600=ORIENTED_EDGE('',*,*,#2590,.T.);
#2610=ORIENTED_EDGE('',*,*,#1680,.F.);
#2620=EDGE_LOOP('',(#2610,#2600,#2540,#2530));
#2630=FACE_OUTER_BOUND('',#2620,.T.);
#2640=ADVANCED_FACE('',(#2630),#2470,.F.);
#2650=CARTESIAN_POINT('',(112.,0.,0.));
#2660=DIRECTION('',(-0.,1.,0.));
#2670=DIRECTION('',(1.,0.,0.));
#2680=AXIS2_PLACEMENT_3D('',#2650,#2660,#2670);
#2690=PLANE('',#2680);
#2700=ORIENTED_EDGE('',*,*,#680,.F.);
#2710=CARTESIAN_POINT('',(107.339745962156,8.88178419700125E-16,0.));
#2720=DIRECTION('',(0.,0.,1.));
#2730=VECTOR('',#2720,1.);
#2740=LINE('',#2710,#2730);
#2750=EDGE_CURVE('',#2220,#590,#2740,.T.);
#2760=ORIENTED_EDGE('',*,*,#2750,.T.);
#2770=ORIENTED_EDGE('',*,*,#2230,.T.);
#2780=CARTESIAN_POINT('',(4.66025403784439,0.,0.));
#2790=DIRECTION('',(0.,0.,-1.));
#2800=VECTOR('',#2790,1.);
#2810=LINE('',#2780,#2800);
#2820=EDGE_CURVE('',#670,#2140,#2810,.T.);
#2830=ORIENTED_EDGE('',*,*,#2820,.T.);
#2840=EDGE_LOOP('',(#2830,#2770,#2760,#2700));
#2850=FACE_OUTER_BOUND('',#2840,.T.);
#2860=ADVANCED_FACE('',(#2850),#2690,.F.);
#2870=CARTESIAN_POINT('',(18.5,17.0000000000001,2.5));
#2880=DIRECTION('',(0.,0.,1.));
#2890=DIRECTION('',(1.,0.,0.));
#2900=AXIS2_PLACEMENT_3D('',#2870,#2880,#2890);
#2910=CYLINDRICAL_SURFACE('',#2900,4.5);
#2920=CARTESIAN_POINT('',(23.,17.0000000000001,2.5));
#2930=DIRECTION('',(0.,0.,1.));
#2940=VECTOR('',#2930,1.);
#2950=LINE('',#2920,#2940);
#2960=EDGE_CURVE('',#1480,#270,#2950,.T.);
#2970=ORIENTED_EDGE('',*,*,#2960,.F.);
#2980=ORIENTED_EDGE('',*,*,#320,.T.);
#2990=CARTESIAN_POINT('',(14.,17.0000000000001,2.5));
#3000=DIRECTION('',(0.,0.,1.));
#3010=VECTOR('',#3000,1.);
#3020=LINE('',#2990,#3010);
#3030=EDGE_CURVE('',#1500,#290,#3020,.T.);
#3040=ORIENTED_EDGE('',*,*,#3030,.T.);
#3050=ORIENTED_EDGE('',*,*,#1530,.F.);
#3060=EDGE_LOOP('',(#3050,#3040,#2980,#2970));
#3070=FACE_OUTER_BOUND('',#3060,.T.);
#3080=ADVANCED_FACE('',(#3070),#2910,.F.);
#3090=CARTESIAN_POINT('',(47.3427220735494,82.,0.));
#3100=DIRECTION('',(-0.,-1.,-0.));
#3110=DIRECTION('',(-1.,0.,0.));
#3120=AXIS2_PLACEMENT_3D('',#3090,#3100,#3110);
#3130=PLANE('',#3120);
#3140=ORIENTED_EDGE('',*,*,#1890,.F.);
#3150=CARTESIAN_POINT('',(65.7705265805024,82.,0.));
#3160=DIRECTION('',(0.,0.,-1.));
#3170=VECTOR('',#3160,1.);
#3180=LINE('',#3150,#3170);
#3190=EDGE_CURVE('',#1010,#1780,#3180,.T.);
#3200=ORIENTED_EDGE('',*,*,#3190,.T.);
#3210=ORIENTED_EDGE('',*,*,#1020,.T.);
#3220=CARTESIAN_POINT('',(46.2294734194975,82.,0.));
#3230=DIRECTION('',(0.,0.,1.));
#3240=VECTOR('',#3230,1.);
#3250=LINE('',#3220,#3240);
#3260=EDGE_CURVE('',#1880,#930,#3250,.T.);
#3270=ORIENTED_EDGE('',*,*,#3260,.T.);
#3280=EDGE_LOOP('',(#3270,#3210,#3200,#3140));
#3290=FACE_OUTER_BOUND('',#3280,.T.);
#3300=ADVANCED_FACE('',(#3290),#3130,.F.);
#3310=CARTESIAN_POINT('',(56.,67.,2.5));
#3320=DIRECTION('',(0.,0.,1.));
#3330=DIRECTION('',(1.,0.,0.));
#3340=AXIS2_PLACEMENT_3D('',#3310,#3320,#3330);
#3350=CYLINDRICAL_SURFACE('',#3340,4.5);
#3360=CARTESIAN_POINT('',(60.5,67.,2.5));
#3370=DIRECTION('',(0.,0.,1.));
#3380=VECTOR('',#3370,1.);
#3390=LINE('',#3360,#3380);
#3400=EDGE_CURVE('',#1330,#120,#3390,.T.);
#3410=ORIENTED_EDGE('',*,*,#3400,.F.);
#3420=ORIENTED_EDGE('',*,*,#170,.T.);
#3430=CARTESIAN_POINT('',(51.5,67.,2.5));
#3440=DIRECTION('',(0.,0.,1.));
#3450=VECTOR('',#3440,1.);
#3460=LINE('',#3430,#3450);
#3470=EDGE_CURVE('',#1350,#140,#3460,.T.);
#3480=ORIENTED_EDGE('',*,*,#3470,.T.);
#3490=ORIENTED_EDGE('',*,*,#1380,.F.);
#3500=EDGE_LOOP('',(#3490,#3480,#3420,#3410));
#3510=FACE_OUTER_BOUND('',#3500,.T.);
#3520=ADVANCED_FACE('',(#3510),#3350,.F.);
#3530=CARTESIAN_POINT('',(43.3427220735494,82.,-0.8000024));
#3540=DIRECTION('',(0.866025403784439,-0.5,0.));
#3550=DIRECTION('',(-0.5,-0.866025403784439,0.));
#3560=AXIS2_PLACEMENT_3D('',#3530,#3540,#3550);
#3570=PLANE('',#3560);
#3580=CARTESIAN_POINT('',(0.330127018922202,7.5,0.));
#3590=DIRECTION('',(0.,0.,-1.));
#3600=VECTOR('',#3590,1.);
#3610=LINE('',#3580,#3600);
#3620=EDGE_CURVE('',#760,#2050,#3610,.T.);
#3630=ORIENTED_EDGE('',*,*,#3620,.F.);
#3640=ORIENTED_EDGE('',*,*,#2060,.F.);
#3650=CARTESIAN_POINT('',(41.8993464005753,79.5,0.));
#3660=DIRECTION('',(0.,0.,1.));
#3670=VECTOR('',#3660,1.);
#3680=LINE('',#3650,#3670);
#3690=EDGE_CURVE('',#1970,#840,#3680,.T.);
#3700=ORIENTED_EDGE('',*,*,#3690,.F.);
#3710=ORIENTED_EDGE('',*,*,#850,.T.);
#3720=EDGE_LOOP('',(#3710,#3700,#3640,#3630));
#3730=FACE_OUTER_BOUND('',#3720,.T.);
#3740=ADVANCED_FACE('',(#3730),#3570,.F.);
#3750=CARTESIAN_POINT('',(116.,0.,-0.8000024));
#3760=DIRECTION('',(-0.866025403784438,-0.500000000000001,-0.));
#3770=DIRECTION('',(-0.500000000000001,0.866025403784438,0.));
#3780=AXIS2_PLACEMENT_3D('',#3750,#3760,#3770);
#3790=PLANE('',#3780);
#3800=ORIENTED_EDGE('',*,*,#1170,.T.);
#3810=CARTESIAN_POINT('',(70.1006535994246,79.5,0.));
#3820=DIRECTION('',(0.,0.,-1.));
#3830=VECTOR('',#3820,1.);
#3840=LINE('',#3810,#3830);
#3850=EDGE_CURVE('',#1100,#1800,#3840,.T.);
#3860=ORIENTED_EDGE('',*,*,#3850,.F.);
#3870=ORIENTED_EDGE('',*,*,#2380,.F.);
#3880=CARTESIAN_POINT('',(111.669872981078,7.50000000000001,0.));
#3890=DIRECTION('',(0.,0.,1.));
#3900=VECTOR('',#3890,1.);
#3910=LINE('',#3880,#3900);
#3920=EDGE_CURVE('',#2310,#570,#3910,.T.);
#3930=ORIENTED_EDGE('',*,*,#3920,.F.);
#3940=EDGE_LOOP('',(#3930,#3870,#3860,#3800));
#3950=FACE_OUTER_BOUND('',#3940,.T.);
#3960=ADVANCED_FACE('',(#3950),#3790,.F.);
#3970=CARTESIAN_POINT('',(4.66025403784439,5.,0.));
#3980=DIRECTION('',(0.,0.,-1.));
#3990=DIRECTION('',(-1.,0.,0.));
#4000=AXIS2_PLACEMENT_3D('',#3970,#3980,#3990);
#4010=CYLINDRICAL_SURFACE('',#4000,5.);
#4020=ORIENTED_EDGE('',*,*,#2150,.F.);
#4030=ORIENTED_EDGE('',*,*,#3620,.T.);
#4040=ORIENTED_EDGE('',*,*,#770,.T.);
#4050=ORIENTED_EDGE('',*,*,#2820,.F.);
#4060=EDGE_LOOP('',(#4050,#4040,#4030,#4020));
#4070=FACE_OUTER_BOUND('',#4060,.T.);
#4080=ADVANCED_FACE('',(#4070),#4010,.T.);
#4090=CARTESIAN_POINT('',(107.339745962156,5.,0.));
#4100=DIRECTION('',(0.,0.,-1.));
#4110=DIRECTION('',(-1.,0.,0.));
#4120=AXIS2_PLACEMENT_3D('',#4090,#4100,#4110);
#4130=CYLINDRICAL_SURFACE('',#4120,5.);
#4140=ORIENTED_EDGE('',*,*,#2320,.F.);
#4150=ORIENTED_EDGE('',*,*,#2750,.F.);
#4160=ORIENTED_EDGE('',*,*,#600,.T.);
#4170=ORIENTED_EDGE('',*,*,#3920,.T.);
#4180=EDGE_LOOP('',(#4170,#4160,#4150,#4140));
#4190=FACE_OUTER_BOUND('',#4180,.T.);
#4200=ADVANCED_FACE('',(#4190),#4130,.T.);
#4210=CARTESIAN_POINT('',(65.7705265805024,77.,0.));
#4220=DIRECTION('',(0.,0.,-1.));
#4230=DIRECTION('',(-1.,0.,0.));
#4240=AXIS2_PLACEMENT_3D('',#4210,#4220,#4230);
#4250=CYLINDRICAL_SURFACE('',#4240,5.);
#4260=ORIENTED_EDGE('',*,*,#1810,.F.);
#4270=ORIENTED_EDGE('',*,*,#3850,.T.);
#4280=ORIENTED_EDGE('',*,*,#1110,.T.);
#4290=ORIENTED_EDGE('',*,*,#3190,.F.);
#4300=EDGE_LOOP('',(#4290,#4280,#4270,#4260));
#4310=FACE_OUTER_BOUND('',#4300,.T.);
#4320=ADVANCED_FACE('',(#4310),#4250,.T.);
#4330=CARTESIAN_POINT('',(46.2294734194975,77.,0.));
#4340=DIRECTION('',(0.,0.,1.));
#4350=DIRECTION('',(1.,0.,0.));
#4360=AXIS2_PLACEMENT_3D('',#4330,#4340,#4350);
#4370=CYLINDRICAL_SURFACE('',#4360,5.);
#4380=ORIENTED_EDGE('',*,*,#940,.F.);
#4390=ORIENTED_EDGE('',*,*,#3690,.T.);
#4400=ORIENTED_EDGE('',*,*,#1980,.T.);
#4410=ORIENTED_EDGE('',*,*,#3260,.F.);
#4420=EDGE_LOOP('',(#4410,#4400,#4390,#4380));
#4430=FACE_OUTER_BOUND('',#4420,.T.);
#4440=ADVANCED_FACE('',(#4430),#4370,.T.);
#4450=CARTESIAN_POINT('',(18.5,17.0000000000001,2.5));
#4460=DIRECTION('',(0.,0.,1.));
#4470=DIRECTION('',(1.,0.,0.));
#4480=AXIS2_PLACEMENT_3D('',#4450,#4460,#4470);
#4490=CYLINDRICAL_SURFACE('',#4480,4.5);
#4500=ORIENTED_EDGE('',*,*,#1510,.F.);
#4510=ORIENTED_EDGE('',*,*,#3030,.F.);
#4520=ORIENTED_EDGE('',*,*,#300,.T.);
#4530=ORIENTED_EDGE('',*,*,#2960,.T.);
#4540=EDGE_LOOP('',(#4530,#4520,#4510,#4500));
#4550=FACE_OUTER_BOUND('',#4540,.T.);
#4560=ADVANCED_FACE('',(#4550),#4490,.F.);
#4570=CARTESIAN_POINT('',(56.,67.,2.5));
#4580=DIRECTION('',(0.,0.,1.));
#4590=DIRECTION('',(1.,0.,0.));
#4600=AXIS2_PLACEMENT_3D('',#4570,#4580,#4590);
#4610=CYLINDRICAL_SURFACE('',#4600,4.5);
#4620=ORIENTED_EDGE('',*,*,#1360,.F.);
#4630=ORIENTED_EDGE('',*,*,#3470,.F.);
#4640=ORIENTED_EDGE('',*,*,#150,.T.);
#4650=ORIENTED_EDGE('',*,*,#3400,.T.);
#4660=EDGE_LOOP('',(#4650,#4640,#4630,#4620));
#4670=FACE_OUTER_BOUND('',#4660,.T.);
#4680=ADVANCED_FACE('',(#4670),#4610,.F.);
#4690=CARTESIAN_POINT('',(93.5,17.,2.5));
#4700=DIRECTION('',(0.,0.,1.));
#4710=DIRECTION('',(1.,0.,0.));
#4720=AXIS2_PLACEMENT_3D('',#4690,#4700,#4710);
#4730=CYLINDRICAL_SURFACE('',#4720,4.5);
#4740=ORIENTED_EDGE('',*,*,#1660,.F.);
#4750=ORIENTED_EDGE('',*,*,#2590,.F.);
#4760=ORIENTED_EDGE('',*,*,#450,.T.);
#4770=ORIENTED_EDGE('',*,*,#2520,.T.);
#4780=EDGE_LOOP('',(#4770,#4760,#4750,#4740));
#4790=FACE_OUTER_BOUND('',#4780,.T.);
#4800=ADVANCED_FACE('',(#4790),#4730,.F.);
#4810=CLOSED_SHELL('',(#2640,#2860,#3080,#3300,#3520,#3740,#3960,#4080,
#4200,#4320,#4440,#4560,#4680,#4800,#2420,#1210));
#4820=MANIFOLD_SOLID_BREP('',#4810);
#4830=CARTESIAN_POINT('',(0.,0.,0.));
#4840=DIRECTION('',(0.,0.,1.));
#4850=DIRECTION('',(1.,0.,0.));
#4860=AXIS2_PLACEMENT_3D('',#4830,#4840,#4850);
#4870=APPLICATION_CONTEXT(' ');
#4880=APPLICATION_PROTOCOL_DEFINITION(' ','automotive_design',1998,#4870
);
#4890=PRODUCT_CONTEXT('',#4870,'mechanical');
#4900=PRODUCT_DEFINITION_CONTEXT('part definition',#4870,'design');
#4910=PRODUCT(
'Winkelplatte-MMS-44_3mm-chem-vernickelt_44.0180.13_PX173329',
'Winkelplatte-MMS-44_3mm-chem-vernickelt_44.0180.13_PX173329','',(#4890)
);
#4920=PRODUCT_RELATED_PRODUCT_CATEGORY('part',' ',(#4910));
#4930=PRODUCT_DEFINITION_FORMATION_WITH_SPECIFIED_SOURCE('','',#4910,
.BOUGHT.);
#4940=PRODUCT_DEFINITION('',' ',#4930,#4900);
#4950=PRODUCT_DEFINITION_SHAPE('','',#4940);
#4960=DIMENSIONAL_EXPONENTS(1.,0.,0.,0.,0.,0.,0.);
#4970=DIMENSIONAL_EXPONENTS(0.,0.,0.,0.,0.,0.,0.);
#4980=DIMENSIONAL_EXPONENTS(0.,0.,0.,0.,0.,0.,0.);
#4990=(LENGTH_UNIT() NAMED_UNIT(*) SI_UNIT(.MILLI.,.METRE.));
#5000=(NAMED_UNIT(*) PLANE_ANGLE_UNIT() SI_UNIT($,.RADIAN.));
#5010=(NAMED_UNIT(*) SI_UNIT($,.STERADIAN.) SOLID_ANGLE_UNIT());
#5020=(GEOMETRIC_REPRESENTATION_CONTEXT(3) 
GLOBAL_UNCERTAINTY_ASSIGNED_CONTEXT((#5030)) 
GLOBAL_UNIT_ASSIGNED_CONTEXT((#4990,#5000,#5010)) REPRESENTATION_CONTEXT
('',''));
#5030=UNCERTAINTY_MEASURE_WITH_UNIT(LENGTH_MEASURE(1.E-6),#4990,
'distance_accuracy_value','maximum gap value');
#5040=ADVANCED_BREP_SHAPE_REPRESENTATION('',(#4860,#4820),#5020);
#5050=SHAPE_DEFINITION_REPRESENTATION(#4950,#5040);
#5060=COLOUR_RGB('',0.690196096897125,0.886274576187134,1.);
#5070=FILL_AREA_STYLE_COLOUR('',#5060);
#5080=FILL_AREA_STYLE('',(#5070));
#5090=SURFACE_STYLE_FILL_AREA(#5080);
#5100=SURFACE_SIDE_STYLE('',(#5090));
#5110=SURFACE_STYLE_USAGE(.BOTH.,#5100);
#5120=PRESENTATION_STYLE_ASSIGNMENT((#5110));
#5130=STYLED_ITEM('',(#5120),#4820);
#5140=DRAUGHTING_MODEL('',(#5130),#5020);
#5150=CARTESIAN_POINT('',(-17.,-4.44089209850063E-16,-2.5));
#5160=DIRECTION('',(0.,0.,1.));
#5170=DIRECTION('',(1.,0.,0.));
#5180=AXIS2_PLACEMENT_3D('',#5150,#5160,#5170);
#5190=ITEM_DEFINED_TRANSFORMATION(
'Winkelplatte-MMS-44_3mm-chem-vernickelt_44.0180.13_PX173329','',#4860,
#5180);
#5200=APPLICATION_CONTEXT(' ');
#5210=APPLICATION_PROTOCOL_DEFINITION(' ','automotive_design',1998,#5200
);
#5220=PRODUCT_CONTEXT('',#5200,'mechanical');
#5230=PRODUCT_DEFINITION_CONTEXT('part definition',#5200,'design');
#5240=PRODUCT(
'Winkelplatte-MMS-44_3mm-chem-vernickelt_44.0180.13_PX173329',
'Winkelplatte-MMS-44_3mm-chem-vernickelt_44.0180.13_PX173329','',(#5220)
);
#5250=PRODUCT_RELATED_PRODUCT_CATEGORY('part',' ',(#5240));
#5260=PRODUCT_DEFINITION_FORMATION_WITH_SPECIFIED_SOURCE('','',#5240,
.BOUGHT.);
#5270=PRODUCT_DEFINITION('',' ',#5260,#5230);
#5280=PRODUCT_DEFINITION_SHAPE('','',#5270);
#5290=DIMENSIONAL_EXPONENTS(1.,0.,0.,0.,0.,0.,0.);
#5300=DIMENSIONAL_EXPONENTS(0.,0.,0.,0.,0.,0.,0.);
#5310=DIMENSIONAL_EXPONENTS(0.,0.,0.,0.,0.,0.,0.);
#5320=(LENGTH_UNIT() NAMED_UNIT(*) SI_UNIT(.MILLI.,.METRE.));
#5330=(NAMED_UNIT(*) PLANE_ANGLE_UNIT() SI_UNIT($,.RADIAN.));
#5340=(NAMED_UNIT(*) SI_UNIT($,.STERADIAN.) SOLID_ANGLE_UNIT());
#5350=(GEOMETRIC_REPRESENTATION_CONTEXT(3) 
GLOBAL_UNCERTAINTY_ASSIGNED_CONTEXT((#5360)) 
GLOBAL_UNIT_ASSIGNED_CONTEXT((#5320,#5330,#5340)) REPRESENTATION_CONTEXT
('',''));
#5360=UNCERTAINTY_MEASURE_WITH_UNIT(LENGTH_MEASURE(1.E-6),#5320,
'distance_accuracy_value','maximum gap value');
#5370=SHAPE_REPRESENTATION('',(#4860,#5180),#5350);
#5380=SHAPE_DEFINITION_REPRESENTATION(#5280,#5370);
#5390=(REPRESENTATION_RELATIONSHIP('','',#5040,#5370) 
REPRESENTATION_RELATIONSHIP_WITH_TRANSFORMATION(#5190) 
SHAPE_REPRESENTATION_RELATIONSHIP());
#5400=NEXT_ASSEMBLY_USAGE_OCCURRENCE('1','',
'Winkelplatte-MMS-44_3mm-chem-vernickelt_44.0180.13_PX173329',#5270,
#4940,'');
#5410=PRODUCT_DEFINITION_SHAPE('','',#5400);
#5420=CONTEXT_DEPENDENT_SHAPE_REPRESENTATION(#5390,#5410);
ENDSEC;
END-ISO-10303-21;
