ISO-10303-21;
HEADER;
FILE_DESCRIPTION(('Creo Elements/Direct Modeling STEP Export'),'2;1');
FILE_NAME(
'//KR-CAD2/PhoenixTemp/karl.letzgus/Konvertierung/44.0205.2_Haltewinkel-
MMS-44_60x40x40x5.stp','2022-03-21T 8:57:52',(''),(''),
'PTC Creo Elements/Direct Modeling STEP processor for AP214 (Solid Model
)',
'PTC Creo Elements/Direct Modeling 19.0C  15-Aug-2015 (C) Parametric Tec
hnology GmbH','');
FILE_SCHEMA(('AUTOMOTIVE_DESIGN { 1 0 10303 214 1 1 1 1 }'));
ENDSEC;
DATA;
#10=CARTESIAN_POINT('',(0.,0.,0.));
#20=DIRECTION('',(0.,0.,1.));
#30=DIRECTION('',(1.,0.,0.));
#40=AXIS2_PLACEMENT_3D('',#10,#20,#30);
#50=PLANE('',#40);
#60=CARTESIAN_POINT('',(20.,20.,0.));
#70=DIRECTION('',(0.,0.,-1.));
#80=DIRECTION('',(1.,0.,0.));
#90=AXIS2_PLACEMENT_3D('',#60,#70,#80);
#100=CIRCLE('',#90,4.5);
#110=CARTESIAN_POINT('',(24.5,20.,0.));
#120=VERTEX_POINT('',#110);
#130=CARTESIAN_POINT('',(15.5,20.,0.));
#140=VERTEX_POINT('',#130);
#150=EDGE_CURVE('',#120,#140,#100,.T.);
#160=ORIENTED_EDGE('',*,*,#150,.F.);
#170=EDGE_CURVE('',#140,#120,#100,.T.);
#180=ORIENTED_EDGE('',*,*,#170,.F.);
#190=EDGE_LOOP('',(#180,#160));
#200=FACE_BOUND('',#190,.T.);
#210=CARTESIAN_POINT('',(0.,40.,0.));
#220=DIRECTION('',(0.,-1.,0.));
#230=VECTOR('',#220,1.);
#240=LINE('',#210,#230);
#250=CARTESIAN_POINT('',(0.,40.,0.));
#260=VERTEX_POINT('',#250);
#270=CARTESIAN_POINT('',(0.,0.,0.));
#280=VERTEX_POINT('',#270);
#290=EDGE_CURVE('',#260,#280,#240,.T.);
#300=ORIENTED_EDGE('',*,*,#290,.F.);
#310=CARTESIAN_POINT('',(0.,0.,0.));
#320=DIRECTION('',(1.,0.,0.));
#330=VECTOR('',#320,1.);
#340=LINE('',#310,#330);
#350=CARTESIAN_POINT('',(40.,0.,0.));
#360=VERTEX_POINT('',#350);
#370=EDGE_CURVE('',#280,#360,#340,.T.);
#380=ORIENTED_EDGE('',*,*,#370,.F.);
#390=CARTESIAN_POINT('',(40.,0.,0.));
#400=DIRECTION('',(0.,1.,0.));
#410=VECTOR('',#400,1.);
#420=LINE('',#390,#410);
#430=CARTESIAN_POINT('',(40.,40.,0.));
#440=VERTEX_POINT('',#430);
#450=EDGE_CURVE('',#360,#440,#420,.T.);
#460=ORIENTED_EDGE('',*,*,#450,.F.);
#470=CARTESIAN_POINT('',(40.,40.,0.));
#480=DIRECTION('',(-1.,0.,0.));
#490=VECTOR('',#480,1.);
#500=LINE('',#470,#490);
#510=EDGE_CURVE('',#440,#260,#500,.T.);
#520=ORIENTED_EDGE('',*,*,#510,.F.);
#530=EDGE_LOOP('',(#520,#460,#380,#300));
#540=FACE_OUTER_BOUND('',#530,.T.);
#550=ADVANCED_FACE('',(#200,#540),#50,.F.);
#560=CARTESIAN_POINT('',(0.,0.,5.));
#570=DIRECTION('',(0.,0.,1.));
#580=DIRECTION('',(1.,0.,0.));
#590=AXIS2_PLACEMENT_3D('',#560,#570,#580);
#600=PLANE('',#590);
#610=CARTESIAN_POINT('',(20.,20.,5.));
#620=DIRECTION('',(0.,0.,-1.));
#630=DIRECTION('',(1.,0.,0.));
#640=AXIS2_PLACEMENT_3D('',#610,#620,#630);
#650=CIRCLE('',#640,4.5);
#660=CARTESIAN_POINT('',(24.5,20.,5.));
#670=VERTEX_POINT('',#660);
#680=CARTESIAN_POINT('',(15.5,20.,5.));
#690=VERTEX_POINT('',#680);
#700=EDGE_CURVE('',#670,#690,#650,.T.);
#710=ORIENTED_EDGE('',*,*,#700,.T.);
#720=EDGE_CURVE('',#690,#670,#650,.T.);
#730=ORIENTED_EDGE('',*,*,#720,.T.);
#740=EDGE_LOOP('',(#730,#710));
#750=FACE_BOUND('',#740,.T.);
#760=CARTESIAN_POINT('',(0.,40.,5.));
#770=DIRECTION('',(0.,-1.,0.));
#780=VECTOR('',#770,1.);
#790=LINE('',#760,#780);
#800=CARTESIAN_POINT('',(0.,40.,5.));
#810=VERTEX_POINT('',#800);
#820=CARTESIAN_POINT('',(0.,5.,5.));
#830=VERTEX_POINT('',#820);
#840=EDGE_CURVE('',#810,#830,#790,.T.);
#850=ORIENTED_EDGE('',*,*,#840,.T.);
#860=CARTESIAN_POINT('',(40.,40.,5.));
#870=DIRECTION('',(-1.,0.,0.));
#880=VECTOR('',#870,1.);
#890=LINE('',#860,#880);
#900=CARTESIAN_POINT('',(40.,40.,5.));
#910=VERTEX_POINT('',#900);
#920=EDGE_CURVE('',#910,#810,#890,.T.);
#930=ORIENTED_EDGE('',*,*,#920,.T.);
#940=CARTESIAN_POINT('',(40.,0.,5.));
#950=DIRECTION('',(0.,1.,0.));
#960=VECTOR('',#950,1.);
#970=LINE('',#940,#960);
#980=CARTESIAN_POINT('',(40.,5.,5.));
#990=VERTEX_POINT('',#980);
#1000=EDGE_CURVE('',#990,#910,#970,.T.);
#1010=ORIENTED_EDGE('',*,*,#1000,.T.);
#1020=CARTESIAN_POINT('',(0.,5.,5.));
#1030=DIRECTION('',(-1.,0.,0.));
#1040=VECTOR('',#1030,1.);
#1050=LINE('',#1020,#1040);
#1060=EDGE_CURVE('',#990,#830,#1050,.T.);
#1070=ORIENTED_EDGE('',*,*,#1060,.F.);
#1080=EDGE_LOOP('',(#1070,#1010,#930,#850));
#1090=FACE_OUTER_BOUND('',#1080,.T.);
#1100=ADVANCED_FACE('',(#750,#1090),#600,.T.);
#1110=CARTESIAN_POINT('',(0.,0.,0.));
#1120=DIRECTION('',(-1.,0.,0.));
#1130=DIRECTION('',(0.,1.,0.));
#1140=AXIS2_PLACEMENT_3D('',#1110,#1120,#1130);
#1150=PLANE('',#1140);
#1160=ORIENTED_EDGE('',*,*,#840,.F.);
#1170=CARTESIAN_POINT('',(0.,5.,5.));
#1180=DIRECTION('',(0.,0.,1.));
#1190=VECTOR('',#1180,1.);
#1200=LINE('',#1170,#1190);
#1210=CARTESIAN_POINT('',(0.,5.,60.));
#1220=VERTEX_POINT('',#1210);
#1230=EDGE_CURVE('',#830,#1220,#1200,.T.);
#1240=ORIENTED_EDGE('',*,*,#1230,.F.);
#1250=CARTESIAN_POINT('',(0.,0.,60.));
#1260=DIRECTION('',(0.,-1.,0.));
#1270=VECTOR('',#1260,1.);
#1280=LINE('',#1250,#1270);
#1290=CARTESIAN_POINT('',(0.,0.,60.));
#1300=VERTEX_POINT('',#1290);
#1310=EDGE_CURVE('',#1220,#1300,#1280,.T.);
#1320=ORIENTED_EDGE('',*,*,#1310,.F.);
#1330=CARTESIAN_POINT('',(0.,0.,0.));
#1340=DIRECTION('',(0.,0.,1.));
#1350=VECTOR('',#1340,1.);
#1360=LINE('',#1330,#1350);
#1370=EDGE_CURVE('',#280,#1300,#1360,.T.);
#1380=ORIENTED_EDGE('',*,*,#1370,.T.);
#1390=ORIENTED_EDGE('',*,*,#290,.T.);
#1400=CARTESIAN_POINT('',(0.,40.,0.));
#1410=DIRECTION('',(0.,0.,-1.));
#1420=VECTOR('',#1410,1.);
#1430=LINE('',#1400,#1420);
#1440=EDGE_CURVE('',#810,#260,#1430,.T.);
#1450=ORIENTED_EDGE('',*,*,#1440,.T.);
#1460=EDGE_LOOP('',(#1450,#1390,#1380,#1320,#1240,#1160));
#1470=FACE_OUTER_BOUND('',#1460,.T.);
#1480=ADVANCED_FACE('',(#1470),#1150,.T.);
#1490=CARTESIAN_POINT('',(40.,0.,0.));
#1500=DIRECTION('',(-0.,-1.,-0.));
#1510=DIRECTION('',(-1.,0.,0.));
#1520=AXIS2_PLACEMENT_3D('',#1490,#1500,#1510);
#1530=PLANE('',#1520);
#1540=CARTESIAN_POINT('',(20.,0.,40.));
#1550=DIRECTION('',(0.,-1.,0.));
#1560=DIRECTION('',(1.,0.,0.));
#1570=AXIS2_PLACEMENT_3D('',#1540,#1550,#1560);
#1580=CIRCLE('',#1570,4.5);
#1590=CARTESIAN_POINT('',(24.5,0.,40.));
#1600=VERTEX_POINT('',#1590);
#1610=CARTESIAN_POINT('',(15.5,0.,40.));
#1620=VERTEX_POINT('',#1610);
#1630=EDGE_CURVE('',#1600,#1620,#1580,.T.);
#1640=ORIENTED_EDGE('',*,*,#1630,.F.);
#1650=EDGE_CURVE('',#1620,#1600,#1580,.T.);
#1660=ORIENTED_EDGE('',*,*,#1650,.F.);
#1670=EDGE_LOOP('',(#1660,#1640));
#1680=FACE_BOUND('',#1670,.T.);
#1690=ORIENTED_EDGE('',*,*,#1370,.F.);
#1700=CARTESIAN_POINT('',(0.,0.,60.));
#1710=DIRECTION('',(1.,0.,0.));
#1720=VECTOR('',#1710,1.);
#1730=LINE('',#1700,#1720);
#1740=CARTESIAN_POINT('',(40.,0.,60.));
#1750=VERTEX_POINT('',#1740);
#1760=EDGE_CURVE('',#1300,#1750,#1730,.T.);
#1770=ORIENTED_EDGE('',*,*,#1760,.F.);
#1780=CARTESIAN_POINT('',(40.,0.,0.));
#1790=DIRECTION('',(0.,0.,1.));
#1800=VECTOR('',#1790,1.);
#1810=LINE('',#1780,#1800);
#1820=EDGE_CURVE('',#360,#1750,#1810,.T.);
#1830=ORIENTED_EDGE('',*,*,#1820,.T.);
#1840=ORIENTED_EDGE('',*,*,#370,.T.);
#1850=EDGE_LOOP('',(#1840,#1830,#1770,#1690));
#1860=FACE_OUTER_BOUND('',#1850,.T.);
#1870=ADVANCED_FACE('',(#1680,#1860),#1530,.T.);
#1880=CARTESIAN_POINT('',(40.,5.,5.));
#1890=DIRECTION('',(1.,0.,0.));
#1900=DIRECTION('',(0.,-1.,0.));
#1910=AXIS2_PLACEMENT_3D('',#1880,#1890,#1900);
#1920=PLANE('',#1910);
#1930=ORIENTED_EDGE('',*,*,#450,.T.);
#1940=ORIENTED_EDGE('',*,*,#1820,.F.);
#1950=CARTESIAN_POINT('',(40.,0.,60.));
#1960=DIRECTION('',(0.,1.,0.));
#1970=VECTOR('',#1960,1.);
#1980=LINE('',#1950,#1970);
#1990=CARTESIAN_POINT('',(40.,5.,60.));
#2000=VERTEX_POINT('',#1990);
#2010=EDGE_CURVE('',#1750,#2000,#1980,.T.);
#2020=ORIENTED_EDGE('',*,*,#2010,.F.);
#2030=CARTESIAN_POINT('',(40.,5.,5.));
#2040=DIRECTION('',(0.,0.,1.));
#2050=VECTOR('',#2040,1.);
#2060=LINE('',#2030,#2050);
#2070=EDGE_CURVE('',#990,#2000,#2060,.T.);
#2080=ORIENTED_EDGE('',*,*,#2070,.T.);
#2090=ORIENTED_EDGE('',*,*,#1000,.F.);
#2100=CARTESIAN_POINT('',(40.,40.,0.));
#2110=DIRECTION('',(0.,0.,1.));
#2120=VECTOR('',#2110,1.);
#2130=LINE('',#2100,#2120);
#2140=EDGE_CURVE('',#440,#910,#2130,.T.);
#2150=ORIENTED_EDGE('',*,*,#2140,.T.);
#2160=EDGE_LOOP('',(#2150,#2090,#2080,#2020,#1940,#1930));
#2170=FACE_OUTER_BOUND('',#2160,.T.);
#2180=ADVANCED_FACE('',(#2170),#1920,.T.);
#2190=CARTESIAN_POINT('',(0.,40.,0.));
#2200=DIRECTION('',(-0.,1.,0.));
#2210=DIRECTION('',(1.,0.,0.));
#2220=AXIS2_PLACEMENT_3D('',#2190,#2200,#2210);
#2230=PLANE('',#2220);
#2240=ORIENTED_EDGE('',*,*,#2140,.F.);
#2250=ORIENTED_EDGE('',*,*,#920,.F.);
#2260=ORIENTED_EDGE('',*,*,#1440,.F.);
#2270=ORIENTED_EDGE('',*,*,#510,.T.);
#2280=EDGE_LOOP('',(#2270,#2260,#2250,#2240));
#2290=FACE_OUTER_BOUND('',#2280,.T.);
#2300=ADVANCED_FACE('',(#2290),#2230,.T.);
#2310=CARTESIAN_POINT('',(0.,5.,5.));
#2320=DIRECTION('',(-0.,1.,0.));
#2330=DIRECTION('',(1.,0.,0.));
#2340=AXIS2_PLACEMENT_3D('',#2310,#2320,#2330);
#2350=PLANE('',#2340);
#2360=CARTESIAN_POINT('',(20.,5.,40.));
#2370=DIRECTION('',(0.,-1.,0.));
#2380=DIRECTION('',(1.,0.,0.));
#2390=AXIS2_PLACEMENT_3D('',#2360,#2370,#2380);
#2400=CIRCLE('',#2390,4.5);
#2410=CARTESIAN_POINT('',(24.5,5.,40.));
#2420=VERTEX_POINT('',#2410);
#2430=CARTESIAN_POINT('',(15.5,5.,40.));
#2440=VERTEX_POINT('',#2430);
#2450=EDGE_CURVE('',#2420,#2440,#2400,.T.);
#2460=ORIENTED_EDGE('',*,*,#2450,.T.);
#2470=EDGE_CURVE('',#2440,#2420,#2400,.T.);
#2480=ORIENTED_EDGE('',*,*,#2470,.T.);
#2490=EDGE_LOOP('',(#2480,#2460));
#2500=FACE_BOUND('',#2490,.T.);
#2510=ORIENTED_EDGE('',*,*,#2070,.F.);
#2520=CARTESIAN_POINT('',(40.,5.,60.));
#2530=DIRECTION('',(-1.,0.,0.));
#2540=VECTOR('',#2530,1.);
#2550=LINE('',#2520,#2540);
#2560=EDGE_CURVE('',#2000,#1220,#2550,.T.);
#2570=ORIENTED_EDGE('',*,*,#2560,.F.);
#2580=ORIENTED_EDGE('',*,*,#1230,.T.);
#2590=ORIENTED_EDGE('',*,*,#1060,.T.);
#2600=EDGE_LOOP('',(#2590,#2580,#2570,#2510));
#2610=FACE_OUTER_BOUND('',#2600,.T.);
#2620=ADVANCED_FACE('',(#2500,#2610),#2350,.T.);
#2630=CARTESIAN_POINT('',(20.,20.,60.));
#2640=DIRECTION('',(0.,0.,1.));
#2650=DIRECTION('',(1.,0.,0.));
#2660=AXIS2_PLACEMENT_3D('',#2630,#2640,#2650);
#2670=PLANE('',#2660);
#2680=ORIENTED_EDGE('',*,*,#2560,.T.);
#2690=ORIENTED_EDGE('',*,*,#2010,.T.);
#2700=ORIENTED_EDGE('',*,*,#1760,.T.);
#2710=ORIENTED_EDGE('',*,*,#1310,.T.);
#2720=EDGE_LOOP('',(#2710,#2700,#2690,#2680));
#2730=FACE_OUTER_BOUND('',#2720,.T.);
#2740=ADVANCED_FACE('',(#2730),#2670,.T.);
#2750=CARTESIAN_POINT('',(20.,20.,450.));
#2760=DIRECTION('',(0.,0.,-1.));
#2770=DIRECTION('',(1.,0.,0.));
#2780=AXIS2_PLACEMENT_3D('',#2750,#2760,#2770);
#2790=CYLINDRICAL_SURFACE('',#2780,4.5);
#2800=CARTESIAN_POINT('',(24.5,20.,450.));
#2810=DIRECTION('',(0.,0.,-1.));
#2820=VECTOR('',#2810,1.);
#2830=LINE('',#2800,#2820);
#2840=EDGE_CURVE('',#670,#120,#2830,.T.);
#2850=ORIENTED_EDGE('',*,*,#2840,.F.);
#2860=ORIENTED_EDGE('',*,*,#170,.T.);
#2870=CARTESIAN_POINT('',(15.5,20.,450.));
#2880=DIRECTION('',(0.,0.,-1.));
#2890=VECTOR('',#2880,1.);
#2900=LINE('',#2870,#2890);
#2910=EDGE_CURVE('',#690,#140,#2900,.T.);
#2920=ORIENTED_EDGE('',*,*,#2910,.T.);
#2930=ORIENTED_EDGE('',*,*,#720,.F.);
#2940=EDGE_LOOP('',(#2930,#2920,#2860,#2850));
#2950=FACE_OUTER_BOUND('',#2940,.T.);
#2960=ADVANCED_FACE('',(#2950),#2790,.F.);
#2970=CARTESIAN_POINT('',(20.,450.,40.));
#2980=DIRECTION('',(0.,-1.,0.));
#2990=DIRECTION('',(1.,0.,0.));
#3000=AXIS2_PLACEMENT_3D('',#2970,#2980,#2990);
#3010=CYLINDRICAL_SURFACE('',#3000,4.5);
#3020=CARTESIAN_POINT('',(24.5,450.,40.));
#3030=DIRECTION('',(0.,-1.,0.));
#3040=VECTOR('',#3030,1.);
#3050=LINE('',#3020,#3040);
#3060=EDGE_CURVE('',#2420,#1600,#3050,.T.);
#3070=ORIENTED_EDGE('',*,*,#3060,.F.);
#3080=ORIENTED_EDGE('',*,*,#1650,.T.);
#3090=CARTESIAN_POINT('',(15.5,450.,40.));
#3100=DIRECTION('',(0.,-1.,0.));
#3110=VECTOR('',#3100,1.);
#3120=LINE('',#3090,#3110);
#3130=EDGE_CURVE('',#2440,#1620,#3120,.T.);
#3140=ORIENTED_EDGE('',*,*,#3130,.T.);
#3150=ORIENTED_EDGE('',*,*,#2470,.F.);
#3160=EDGE_LOOP('',(#3150,#3140,#3080,#3070));
#3170=FACE_OUTER_BOUND('',#3160,.T.);
#3180=ADVANCED_FACE('',(#3170),#3010,.F.);
#3190=CARTESIAN_POINT('',(20.,20.,450.));
#3200=DIRECTION('',(0.,0.,-1.));
#3210=DIRECTION('',(1.,0.,0.));
#3220=AXIS2_PLACEMENT_3D('',#3190,#3200,#3210);
#3230=CYLINDRICAL_SURFACE('',#3220,4.5);
#3240=ORIENTED_EDGE('',*,*,#700,.F.);
#3250=ORIENTED_EDGE('',*,*,#2910,.F.);
#3260=ORIENTED_EDGE('',*,*,#150,.T.);
#3270=ORIENTED_EDGE('',*,*,#2840,.T.);
#3280=EDGE_LOOP('',(#3270,#3260,#3250,#3240));
#3290=FACE_OUTER_BOUND('',#3280,.T.);
#3300=ADVANCED_FACE('',(#3290),#3230,.F.);
#3310=CARTESIAN_POINT('',(20.,450.,40.));
#3320=DIRECTION('',(0.,-1.,0.));
#3330=DIRECTION('',(1.,0.,0.));
#3340=AXIS2_PLACEMENT_3D('',#3310,#3320,#3330);
#3350=CYLINDRICAL_SURFACE('',#3340,4.5);
#3360=ORIENTED_EDGE('',*,*,#2450,.F.);
#3370=ORIENTED_EDGE('',*,*,#3130,.F.);
#3380=ORIENTED_EDGE('',*,*,#1630,.T.);
#3390=ORIENTED_EDGE('',*,*,#3060,.T.);
#3400=EDGE_LOOP('',(#3390,#3380,#3370,#3360));
#3410=FACE_OUTER_BOUND('',#3400,.T.);
#3420=ADVANCED_FACE('',(#3410),#3350,.F.);
#3430=CLOSED_SHELL('',(#1480,#1870,#2180,#2300,#2620,#2740,#2960,#3180,
#3300,#3420,#1100,#550));
#3440=MANIFOLD_SOLID_BREP('',#3430);
#3450=CARTESIAN_POINT('',(0.,0.,0.));
#3460=DIRECTION('',(0.,0.,1.));
#3470=DIRECTION('',(1.,0.,0.));
#3480=AXIS2_PLACEMENT_3D('',#3450,#3460,#3470);
#3490=APPLICATION_CONTEXT(' ');
#3500=APPLICATION_PROTOCOL_DEFINITION(' ','automotive_design',1998,#3490
);
#3510=PRODUCT_CONTEXT('',#3490,'mechanical');
#3520=PRODUCT_DEFINITION_CONTEXT('part definition',#3490,'design');
#3530=PRODUCT('Haltewinkel-MMS-44_60x40x40x5_44.0205.2_PX173452',
'Haltewinkel-MMS-44_60x40x40x5_44.0205.2_PX173452','',(#3510));
#3540=PRODUCT_RELATED_PRODUCT_CATEGORY('part',' ',(#3530));
#3550=PRODUCT_DEFINITION_FORMATION_WITH_SPECIFIED_SOURCE('','',#3530,
.BOUGHT.);
#3560=PRODUCT_DEFINITION('',' ',#3550,#3520);
#3570=PRODUCT_DEFINITION_SHAPE('','',#3560);
#3580=DIMENSIONAL_EXPONENTS(1.,0.,0.,0.,0.,0.,0.);
#3590=DIMENSIONAL_EXPONENTS(0.,0.,0.,0.,0.,0.,0.);
#3600=DIMENSIONAL_EXPONENTS(0.,0.,0.,0.,0.,0.,0.);
#3610=(LENGTH_UNIT() NAMED_UNIT(*) SI_UNIT(.MILLI.,.METRE.));
#3620=(NAMED_UNIT(*) PLANE_ANGLE_UNIT() SI_UNIT($,.RADIAN.));
#3630=(NAMED_UNIT(*) SI_UNIT($,.STERADIAN.) SOLID_ANGLE_UNIT());
#3640=(GEOMETRIC_REPRESENTATION_CONTEXT(3) 
GLOBAL_UNCERTAINTY_ASSIGNED_CONTEXT((#3650)) 
GLOBAL_UNIT_ASSIGNED_CONTEXT((#3610,#3620,#3630)) REPRESENTATION_CONTEXT
('',''));
#3650=UNCERTAINTY_MEASURE_WITH_UNIT(LENGTH_MEASURE(1.E-6),#3610,
'distance_accuracy_value','maximum gap value');
#3660=ADVANCED_BREP_SHAPE_REPRESENTATION('',(#3480,#3440),#3640);
#3670=SHAPE_DEFINITION_REPRESENTATION(#3570,#3660);
#3680=COLOUR_RGB('',0.690196096897125,0.886274576187134,1.);
#3690=FILL_AREA_STYLE_COLOUR('',#3680);
#3700=FILL_AREA_STYLE('',(#3690));
#3710=SURFACE_STYLE_FILL_AREA(#3700);
#3720=SURFACE_SIDE_STYLE('',(#3710));
#3730=SURFACE_STYLE_USAGE(.BOTH.,#3720);
#3740=PRESENTATION_STYLE_ASSIGNMENT((#3730));
#3750=STYLED_ITEM('',(#3740),#3440);
#3760=DRAUGHTING_MODEL('',(#3750),#3640);
#3770=CARTESIAN_POINT('',(0.,0.,-5.));
#3780=DIRECTION('',(0.,0.,1.));
#3790=DIRECTION('',(1.,0.,0.));
#3800=AXIS2_PLACEMENT_3D('',#3770,#3780,#3790);
#3810=ITEM_DEFINED_TRANSFORMATION(
'Haltewinkel-MMS-44_60x40x40x5_44.0205.2_PX173452','',#3480,#3800);
#3820=APPLICATION_CONTEXT(' ');
#3830=APPLICATION_PROTOCOL_DEFINITION(' ','automotive_design',1998,#3820
);
#3840=PRODUCT_CONTEXT('',#3820,'mechanical');
#3850=PRODUCT_DEFINITION_CONTEXT('part definition',#3820,'design');
#3860=PRODUCT('Haltewinkel-MMS-44_60x40x40x5_44.0205.2_PX173452',
'Haltewinkel-MMS-44_60x40x40x5_44.0205.2_PX173452','',(#3840));
#3870=PRODUCT_RELATED_PRODUCT_CATEGORY('part',' ',(#3860));
#3880=PRODUCT_DEFINITION_FORMATION_WITH_SPECIFIED_SOURCE('','',#3860,
.BOUGHT.);
#3890=PRODUCT_DEFINITION('',' ',#3880,#3850);
#3900=PRODUCT_DEFINITION_SHAPE('','',#3890);
#3910=DIMENSIONAL_EXPONENTS(1.,0.,0.,0.,0.,0.,0.);
#3920=DIMENSIONAL_EXPONENTS(0.,0.,0.,0.,0.,0.,0.);
#3930=DIMENSIONAL_EXPONENTS(0.,0.,0.,0.,0.,0.,0.);
#3940=(LENGTH_UNIT() NAMED_UNIT(*) SI_UNIT(.MILLI.,.METRE.));
#3950=(NAMED_UNIT(*) PLANE_ANGLE_UNIT() SI_UNIT($,.RADIAN.));
#3960=(NAMED_UNIT(*) SI_UNIT($,.STERADIAN.) SOLID_ANGLE_UNIT());
#3970=(GEOMETRIC_REPRESENTATION_CONTEXT(3) 
GLOBAL_UNCERTAINTY_ASSIGNED_CONTEXT((#3980)) 
GLOBAL_UNIT_ASSIGNED_CONTEXT((#3940,#3950,#3960)) REPRESENTATION_CONTEXT
('',''));
#3980=UNCERTAINTY_MEASURE_WITH_UNIT(LENGTH_MEASURE(1.E-6),#3940,
'distance_accuracy_value','maximum gap value');
#3990=SHAPE_REPRESENTATION('',(#3480,#3800),#3970);
#4000=SHAPE_DEFINITION_REPRESENTATION(#3900,#3990);
#4010=(REPRESENTATION_RELATIONSHIP('','',#3660,#3990) 
REPRESENTATION_RELATIONSHIP_WITH_TRANSFORMATION(#3810) 
SHAPE_REPRESENTATION_RELATIONSHIP());
#4020=NEXT_ASSEMBLY_USAGE_OCCURRENCE('1','',
'Haltewinkel-MMS-44_60x40x40x5_44.0205.2_PX173452',#3890,#3560,'');
#4030=PRODUCT_DEFINITION_SHAPE('','',#4020);
#4040=CONTEXT_DEPENDENT_SHAPE_REPRESENTATION(#4010,#4030);
ENDSEC;
END-ISO-10303-21;
