ISO-10303-21;
HEADER;
FILE_DESCRIPTION(('Creo Elements/Direct Modeling STEP Export'),'2;1');
FILE_NAME(
'//KR-CAD2/PhoenixTemp/karl.letzgus/Konvertierung/44.0205.5_Haltewinkel-
MMS-44_60x40x40x5-Langloch.stp','2022-03-21T 8:57:53',(''),(''),
'PTC Creo Elements/Direct Modeling STEP processor for AP214 (Solid Model
)',
'PTC Creo Elements/Direct Modeling 19.0C  15-Aug-2015 (C) Parametric Tec
hnology GmbH','');
FILE_SCHEMA(('AUTOMOTIVE_DESIGN { 1 0 10303 214 1 1 1 1 }'));
ENDSEC;
DATA;
#10=CARTESIAN_POINT('',(4.5,-49.5,24.0000024));
#20=DIRECTION('',(1.,0.,0.));
#30=DIRECTION('',(0.,1.,0.));
#40=AXIS2_PLACEMENT_3D('',#10,#20,#30);
#50=PLANE('',#40);
#60=CARTESIAN_POINT('',(4.5,-33.5,-14.95));
#70=DIRECTION('',(0.,0.,-1.));
#80=VECTOR('',#70,1.);
#90=LINE('',#60,#80);
#100=CARTESIAN_POINT('',(4.5,-33.5,-15.));
#110=VERTEX_POINT('',#100);
#120=CARTESIAN_POINT('',(4.5,-33.5,-20.));
#130=VERTEX_POINT('',#120);
#140=EDGE_CURVE('',#110,#130,#90,.T.);
#150=ORIENTED_EDGE('',*,*,#140,.T.);
#160=CARTESIAN_POINT('',(4.5,-1.5,-15.));
#170=DIRECTION('',(0.,1.,0.));
#180=VECTOR('',#170,1.);
#190=LINE('',#160,#180);
#200=CARTESIAN_POINT('',(4.5,-49.5,-15.));
#210=VERTEX_POINT('',#200);
#220=EDGE_CURVE('',#210,#110,#190,.T.);
#230=ORIENTED_EDGE('',*,*,#220,.T.);
#240=CARTESIAN_POINT('',(4.5,-49.5,24.0000024));
#250=DIRECTION('',(0.,0.,-1.));
#260=VECTOR('',#250,1.);
#270=LINE('',#240,#260);
#280=CARTESIAN_POINT('',(4.5,-49.5,-20.));
#290=VERTEX_POINT('',#280);
#300=EDGE_CURVE('',#210,#290,#270,.T.);
#310=ORIENTED_EDGE('',*,*,#300,.F.);
#320=CARTESIAN_POINT('',(4.5,-1.5,-20.));
#330=DIRECTION('',(0.,1.,0.));
#340=VECTOR('',#330,1.);
#350=LINE('',#320,#340);
#360=EDGE_CURVE('',#290,#130,#350,.T.);
#370=ORIENTED_EDGE('',*,*,#360,.F.);
#380=EDGE_LOOP('',(#370,#310,#230,#150));
#390=FACE_OUTER_BOUND('',#380,.T.);
#400=ADVANCED_FACE('',(#390),#50,.F.);
#410=CARTESIAN_POINT('',(0.,-66.0000024,9.5));
#420=DIRECTION('',(0.,1.,0.));
#430=DIRECTION('',(-1.,0.,0.));
#440=AXIS2_PLACEMENT_3D('',#410,#420,#430);
#450=CYLINDRICAL_SURFACE('',#440,4.5);
#460=CARTESIAN_POINT('',(-4.5,-66.0000024,9.5));
#470=DIRECTION('',(0.,1.,0.));
#480=VECTOR('',#470,1.);
#490=LINE('',#460,#480);
#500=CARTESIAN_POINT('',(-4.5,-5.,9.5));
#510=VERTEX_POINT('',#500);
#520=CARTESIAN_POINT('',(-4.5,0.,9.5));
#530=VERTEX_POINT('',#520);
#540=EDGE_CURVE('',#510,#530,#490,.T.);
#550=ORIENTED_EDGE('',*,*,#540,.T.);
#560=CARTESIAN_POINT('',(0.,-5.,9.5));
#570=DIRECTION('',(0.,1.,0.));
#580=DIRECTION('',(-1.,0.,0.));
#590=AXIS2_PLACEMENT_3D('',#560,#570,#580);
#600=CIRCLE('',#590,4.5);
#610=CARTESIAN_POINT('',(4.5,-5.,9.5));
#620=VERTEX_POINT('',#610);
#630=EDGE_CURVE('',#510,#620,#600,.T.);
#640=ORIENTED_EDGE('',*,*,#630,.F.);
#650=CARTESIAN_POINT('',(4.5,-66.0000024,9.5));
#660=DIRECTION('',(0.,1.,0.));
#670=VECTOR('',#660,1.);
#680=LINE('',#650,#670);
#690=CARTESIAN_POINT('',(4.5,0.,9.5));
#700=VERTEX_POINT('',#690);
#710=EDGE_CURVE('',#620,#700,#680,.T.);
#720=ORIENTED_EDGE('',*,*,#710,.F.);
#730=CARTESIAN_POINT('',(0.,0.,9.5));
#740=DIRECTION('',(0.,1.,0.));
#750=DIRECTION('',(-1.,0.,0.));
#760=AXIS2_PLACEMENT_3D('',#730,#740,#750);
#770=CIRCLE('',#760,4.5);
#780=EDGE_CURVE('',#530,#700,#770,.T.);
#790=ORIENTED_EDGE('',*,*,#780,.T.);
#800=EDGE_LOOP('',(#790,#720,#640,#550));
#810=FACE_OUTER_BOUND('',#800,.T.);
#820=ADVANCED_FACE('',(#810),#450,.F.);
#830=CARTESIAN_POINT('',(-20.4,0.5,-20.));
#840=DIRECTION('',(0.,0.,1.));
#850=DIRECTION('',(1.,0.,0.));
#860=AXIS2_PLACEMENT_3D('',#830,#840,#850);
#870=PLANE('',#860);
#880=CARTESIAN_POINT('',(-9.98014458146396E-30,-33.5,-20.));
#890=DIRECTION('',(0.,0.,-1.));
#900=DIRECTION('',(-1.,0.,0.));
#910=AXIS2_PLACEMENT_3D('',#880,#890,#900);
#920=CIRCLE('',#910,4.5);
#930=CARTESIAN_POINT('',(-4.5,-33.5,-20.));
#940=VERTEX_POINT('',#930);
#950=EDGE_CURVE('',#940,#130,#920,.T.);
#960=ORIENTED_EDGE('',*,*,#950,.F.);
#970=ORIENTED_EDGE('',*,*,#360,.T.);
#980=CARTESIAN_POINT('',(0.,-49.5,-20.));
#990=DIRECTION('',(0.,0.,-1.));
#1000=DIRECTION('',(0.,-1.,0.));
#1010=AXIS2_PLACEMENT_3D('',#980,#990,#1000);
#1020=CIRCLE('',#1010,4.5);
#1030=CARTESIAN_POINT('',(-4.5,-49.5,-20.));
#1040=VERTEX_POINT('',#1030);
#1050=EDGE_CURVE('',#290,#1040,#1020,.T.);
#1060=ORIENTED_EDGE('',*,*,#1050,.F.);
#1070=CARTESIAN_POINT('',(-4.5,-1.5,-20.));
#1080=DIRECTION('',(0.,-1.,-1.23259516440783E-32));
#1090=VECTOR('',#1080,1.);
#1100=LINE('',#1070,#1090);
#1110=EDGE_CURVE('',#940,#1040,#1100,.T.);
#1120=ORIENTED_EDGE('',*,*,#1110,.T.);
#1130=EDGE_LOOP('',(#1120,#1060,#970,#960));
#1140=FACE_BOUND('',#1130,.T.);
#1150=CARTESIAN_POINT('',(-20.,0.,-20.));
#1160=DIRECTION('',(0.,1.,0.));
#1170=VECTOR('',#1160,1.);
#1180=LINE('',#1150,#1170);
#1190=CARTESIAN_POINT('',(-20.,-60.,-20.));
#1200=VERTEX_POINT('',#1190);
#1210=CARTESIAN_POINT('',(-20.,-1.22460635382238E-15,-20.));
#1220=VERTEX_POINT('',#1210);
#1230=EDGE_CURVE('',#1200,#1220,#1180,.T.);
#1240=ORIENTED_EDGE('',*,*,#1230,.T.);
#1250=CARTESIAN_POINT('',(0.,-60.,-20.));
#1260=DIRECTION('',(-1.,0.,0.));
#1270=VECTOR('',#1260,1.);
#1280=LINE('',#1250,#1270);
#1290=CARTESIAN_POINT('',(20.,-60.,-20.));
#1300=VERTEX_POINT('',#1290);
#1310=EDGE_CURVE('',#1300,#1200,#1280,.T.);
#1320=ORIENTED_EDGE('',*,*,#1310,.T.);
#1330=CARTESIAN_POINT('',(20.,0.,-20.));
#1340=DIRECTION('',(0.,1.,0.));
#1350=VECTOR('',#1340,1.);
#1360=LINE('',#1330,#1350);
#1370=CARTESIAN_POINT('',(20.,-1.22460635382238E-15,-20.));
#1380=VERTEX_POINT('',#1370);
#1390=EDGE_CURVE('',#1300,#1380,#1360,.T.);
#1400=ORIENTED_EDGE('',*,*,#1390,.F.);
#1410=CARTESIAN_POINT('',(0.,-1.24909848089882E-15,-20.));
#1420=DIRECTION('',(-1.,0.,0.));
#1430=VECTOR('',#1420,1.);
#1440=LINE('',#1410,#1430);
#1450=EDGE_CURVE('',#1380,#1220,#1440,.T.);
#1460=ORIENTED_EDGE('',*,*,#1450,.F.);
#1470=EDGE_LOOP('',(#1460,#1400,#1320,#1240));
#1480=FACE_OUTER_BOUND('',#1470,.T.);
#1490=ADVANCED_FACE('',(#1140,#1480),#870,.F.);
#1500=CARTESIAN_POINT('',(-20.4,-60.,-20.05));
#1510=DIRECTION('',(-0.,1.,0.));
#1520=DIRECTION('',(1.,0.,0.));
#1530=AXIS2_PLACEMENT_3D('',#1500,#1510,#1520);
#1540=PLANE('',#1530);
#1550=ORIENTED_EDGE('',*,*,#1310,.F.);
#1560=CARTESIAN_POINT('',(-20.,-60.,0.));
#1570=DIRECTION('',(0.,0.,-1.));
#1580=VECTOR('',#1570,1.);
#1590=LINE('',#1560,#1580);
#1600=CARTESIAN_POINT('',(-20.,-60.,-15.));
#1610=VERTEX_POINT('',#1600);
#1620=EDGE_CURVE('',#1610,#1200,#1590,.T.);
#1630=ORIENTED_EDGE('',*,*,#1620,.T.);
#1640=CARTESIAN_POINT('',(0.,-60.,-15.));
#1650=DIRECTION('',(1.,0.,0.));
#1660=VECTOR('',#1650,1.);
#1670=LINE('',#1640,#1660);
#1680=CARTESIAN_POINT('',(20.,-60.,-15.));
#1690=VERTEX_POINT('',#1680);
#1700=EDGE_CURVE('',#1610,#1690,#1670,.T.);
#1710=ORIENTED_EDGE('',*,*,#1700,.F.);
#1720=CARTESIAN_POINT('',(20.,-60.,0.));
#1730=DIRECTION('',(0.,0.,1.));
#1740=VECTOR('',#1730,1.);
#1750=LINE('',#1720,#1740);
#1760=EDGE_CURVE('',#1300,#1690,#1750,.T.);
#1770=ORIENTED_EDGE('',*,*,#1760,.T.);
#1780=EDGE_LOOP('',(#1770,#1710,#1630,#1550));
#1790=FACE_OUTER_BOUND('',#1780,.T.);
#1800=ADVANCED_FACE('',(#1790),#1540,.F.);
#1810=CARTESIAN_POINT('',(20.,0.499999999999999,-20.4));
#1820=DIRECTION('',(-1.,0.,0.));
#1830=DIRECTION('',(0.,1.,0.));
#1840=AXIS2_PLACEMENT_3D('',#1810,#1820,#1830);
#1850=PLANE('',#1840);
#1860=CARTESIAN_POINT('',(20.,-1.24909848089882E-15,0.));
#1870=DIRECTION('',(0.,0.,-1.));
#1880=VECTOR('',#1870,1.);
#1890=LINE('',#1860,#1880);
#1900=CARTESIAN_POINT('',(20.,-1.24909848089882E-15,20.));
#1910=VERTEX_POINT('',#1900);
#1920=EDGE_CURVE('',#1910,#1380,#1890,.T.);
#1930=ORIENTED_EDGE('',*,*,#1920,.F.);
#1940=ORIENTED_EDGE('',*,*,#1390,.T.);
#1950=ORIENTED_EDGE('',*,*,#1760,.F.);
#1960=CARTESIAN_POINT('',(20.,0.,-15.));
#1970=DIRECTION('',(0.,1.,0.));
#1980=VECTOR('',#1970,1.);
#1990=LINE('',#1960,#1980);
#2000=CARTESIAN_POINT('',(20.,-5.,-15.));
#2010=VERTEX_POINT('',#2000);
#2020=EDGE_CURVE('',#1690,#2010,#1990,.T.);
#2030=ORIENTED_EDGE('',*,*,#2020,.F.);
#2040=CARTESIAN_POINT('',(20.,-5.,0.));
#2050=DIRECTION('',(0.,0.,1.));
#2060=VECTOR('',#2050,1.);
#2070=LINE('',#2040,#2060);
#2080=CARTESIAN_POINT('',(20.,-5.,20.));
#2090=VERTEX_POINT('',#2080);
#2100=EDGE_CURVE('',#2010,#2090,#2070,.T.);
#2110=ORIENTED_EDGE('',*,*,#2100,.F.);
#2120=CARTESIAN_POINT('',(20.,0.,20.));
#2130=DIRECTION('',(0.,-1.,0.));
#2140=VECTOR('',#2130,1.);
#2150=LINE('',#2120,#2140);
#2160=EDGE_CURVE('',#1910,#2090,#2150,.T.);
#2170=ORIENTED_EDGE('',*,*,#2160,.T.);
#2180=EDGE_LOOP('',(#2170,#2110,#2030,#1950,#1940,#1930));
#2190=FACE_OUTER_BOUND('',#2180,.T.);
#2200=ADVANCED_FACE('',(#2190),#1850,.F.);
#2210=CARTESIAN_POINT('',(-20.4,-5.,-15.35));
#2220=DIRECTION('',(-0.,-1.,-0.));
#2230=DIRECTION('',(-1.,0.,0.));
#2240=AXIS2_PLACEMENT_3D('',#2210,#2220,#2230);
#2250=PLANE('',#2240);
#2260=CARTESIAN_POINT('',(-2.80477395694776E-16,-5.,-1.5));
#2270=DIRECTION('',(0.,-1.,0.));
#2280=DIRECTION('',(-1.,0.,0.));
#2290=AXIS2_PLACEMENT_3D('',#2260,#2270,#2280);
#2300=CIRCLE('',#2290,4.5);
#2310=CARTESIAN_POINT('',(-4.5,-5.,-1.5));
#2320=VERTEX_POINT('',#2310);
#2330=CARTESIAN_POINT('',(4.5,-5.,-1.5));
#2340=VERTEX_POINT('',#2330);
#2350=EDGE_CURVE('',#2320,#2340,#2300,.T.);
#2360=ORIENTED_EDGE('',*,*,#2350,.F.);
#2370=CARTESIAN_POINT('',(4.5,-5.,0.));
#2380=DIRECTION('',(1.86984930463184E-16,0.,1.));
#2390=VECTOR('',#2380,1.);
#2400=LINE('',#2370,#2390);
#2410=EDGE_CURVE('',#2340,#620,#2400,.T.);
#2420=ORIENTED_EDGE('',*,*,#2410,.F.);
#2430=ORIENTED_EDGE('',*,*,#630,.T.);
#2440=CARTESIAN_POINT('',(-4.5,-5.,0.));
#2450=DIRECTION('',(-1.86984930463184E-16,0.,-1.));
#2460=VECTOR('',#2450,1.);
#2470=LINE('',#2440,#2460);
#2480=EDGE_CURVE('',#510,#2320,#2470,.T.);
#2490=ORIENTED_EDGE('',*,*,#2480,.F.);
#2500=EDGE_LOOP('',(#2490,#2430,#2420,#2360));
#2510=FACE_BOUND('',#2500,.T.);
#2520=CARTESIAN_POINT('',(-20.,-5.,0.));
#2530=DIRECTION('',(0.,0.,-1.));
#2540=VECTOR('',#2530,1.);
#2550=LINE('',#2520,#2540);
#2560=CARTESIAN_POINT('',(-20.,-5.,20.));
#2570=VERTEX_POINT('',#2560);
#2580=CARTESIAN_POINT('',(-20.,-5.,-15.));
#2590=VERTEX_POINT('',#2580);
#2600=EDGE_CURVE('',#2570,#2590,#2550,.T.);
#2610=ORIENTED_EDGE('',*,*,#2600,.T.);
#2620=CARTESIAN_POINT('',(0.,-5.,20.));
#2630=DIRECTION('',(-1.,0.,0.));
#2640=VECTOR('',#2630,1.);
#2650=LINE('',#2620,#2640);
#2660=EDGE_CURVE('',#2090,#2570,#2650,.T.);
#2670=ORIENTED_EDGE('',*,*,#2660,.T.);
#2680=ORIENTED_EDGE('',*,*,#2100,.T.);
#2690=CARTESIAN_POINT('',(0.,-5.,-15.));
#2700=DIRECTION('',(1.,0.,0.));
#2710=VECTOR('',#2700,1.);
#2720=LINE('',#2690,#2710);
#2730=EDGE_CURVE('',#2590,#2010,#2720,.T.);
#2740=ORIENTED_EDGE('',*,*,#2730,.T.);
#2750=EDGE_LOOP('',(#2740,#2680,#2670,#2610));
#2760=FACE_OUTER_BOUND('',#2750,.T.);
#2770=ADVANCED_FACE('',(#2510,#2760),#2250,.T.);
#2780=CARTESIAN_POINT('',(-20.4,-1.24909848089882E-15,-20.4));
#2790=DIRECTION('',(-0.,-1.,-0.));
#2800=DIRECTION('',(-1.,0.,0.));
#2810=AXIS2_PLACEMENT_3D('',#2780,#2790,#2800);
#2820=PLANE('',#2810);
#2830=ORIENTED_EDGE('',*,*,#780,.F.);
#2840=CARTESIAN_POINT('',(4.5,-1.24909848089882E-15,0.));
#2850=DIRECTION('',(1.86984930463184E-16,0.,1.));
#2860=VECTOR('',#2850,1.);
#2870=LINE('',#2840,#2860);
#2880=CARTESIAN_POINT('',(4.5,-1.2490009027033E-15,-1.5));
#2890=VERTEX_POINT('',#2880);
#2900=EDGE_CURVE('',#2890,#700,#2870,.T.);
#2910=ORIENTED_EDGE('',*,*,#2900,.T.);
#2920=CARTESIAN_POINT('',(-2.80477395694776E-16,-1.2490009027033E-15,
-1.5));
#2930=DIRECTION('',(0.,-1.,0.));
#2940=DIRECTION('',(-1.,0.,0.));
#2950=AXIS2_PLACEMENT_3D('',#2920,#2930,#2940);
#2960=CIRCLE('',#2950,4.5);
#2970=CARTESIAN_POINT('',(-4.5,-1.2490009027033E-15,-1.5));
#2980=VERTEX_POINT('',#2970);
#2990=EDGE_CURVE('',#2980,#2890,#2960,.T.);
#3000=ORIENTED_EDGE('',*,*,#2990,.T.);
#3010=CARTESIAN_POINT('',(-4.5,-1.24909848089882E-15,0.));
#3020=DIRECTION('',(-1.86984930463184E-16,0.,-1.));
#3030=VECTOR('',#3020,1.);
#3040=LINE('',#3010,#3030);
#3050=EDGE_CURVE('',#530,#2980,#3040,.T.);
#3060=ORIENTED_EDGE('',*,*,#3050,.T.);
#3070=EDGE_LOOP('',(#3060,#3000,#2910,#2830));
#3080=FACE_BOUND('',#3070,.T.);
#3090=CARTESIAN_POINT('',(-20.,-1.24909848089882E-15,0.));
#3100=DIRECTION('',(0.,0.,1.));
#3110=VECTOR('',#3100,1.);
#3120=LINE('',#3090,#3110);
#3130=CARTESIAN_POINT('',(-20.,-1.24909848089882E-15,20.));
#3140=VERTEX_POINT('',#3130);
#3150=EDGE_CURVE('',#1220,#3140,#3120,.T.);
#3160=ORIENTED_EDGE('',*,*,#3150,.T.);
#3170=ORIENTED_EDGE('',*,*,#1450,.T.);
#3180=ORIENTED_EDGE('',*,*,#1920,.T.);
#3190=CARTESIAN_POINT('',(0.,-1.24909848089882E-15,20.));
#3200=DIRECTION('',(1.,0.,0.));
#3210=VECTOR('',#3200,1.);
#3220=LINE('',#3190,#3210);
#3230=EDGE_CURVE('',#3140,#1910,#3220,.T.);
#3240=ORIENTED_EDGE('',*,*,#3230,.T.);
#3250=EDGE_LOOP('',(#3240,#3180,#3170,#3160));
#3260=FACE_OUTER_BOUND('',#3250,.T.);
#3270=ADVANCED_FACE('',(#3080,#3260),#2820,.F.);
#3280=CARTESIAN_POINT('',(-20.4,-60.5,-15.));
#3290=DIRECTION('',(0.,0.,1.));
#3300=DIRECTION('',(1.,0.,0.));
#3310=AXIS2_PLACEMENT_3D('',#3280,#3290,#3300);
#3320=PLANE('',#3310);
#3330=CARTESIAN_POINT('',(0.,-49.5,-15.));
#3340=DIRECTION('',(0.,0.,-1.));
#3350=DIRECTION('',(0.,-1.,0.));
#3360=AXIS2_PLACEMENT_3D('',#3330,#3340,#3350);
#3370=CIRCLE('',#3360,4.5);
#3380=CARTESIAN_POINT('',(-4.5,-49.5,-15.));
#3390=VERTEX_POINT('',#3380);
#3400=EDGE_CURVE('',#210,#3390,#3370,.T.);
#3410=ORIENTED_EDGE('',*,*,#3400,.T.);
#3420=ORIENTED_EDGE('',*,*,#220,.F.);
#3430=CARTESIAN_POINT('',(-9.98014458146396E-30,-33.5,-15.));
#3440=DIRECTION('',(0.,0.,-1.));
#3450=DIRECTION('',(-1.,0.,0.));
#3460=AXIS2_PLACEMENT_3D('',#3430,#3440,#3450);
#3470=CIRCLE('',#3460,4.5);
#3480=CARTESIAN_POINT('',(-4.5,-33.5,-15.));
#3490=VERTEX_POINT('',#3480);
#3500=EDGE_CURVE('',#3490,#110,#3470,.T.);
#3510=ORIENTED_EDGE('',*,*,#3500,.T.);
#3520=CARTESIAN_POINT('',(-4.5,-1.5,-15.));
#3530=DIRECTION('',(0.,-1.,0.));
#3540=VECTOR('',#3530,1.);
#3550=LINE('',#3520,#3540);
#3560=EDGE_CURVE('',#3490,#3390,#3550,.T.);
#3570=ORIENTED_EDGE('',*,*,#3560,.F.);
#3580=EDGE_LOOP('',(#3570,#3510,#3420,#3410));
#3590=FACE_BOUND('',#3580,.T.);
#3600=ORIENTED_EDGE('',*,*,#2020,.T.);
#3610=ORIENTED_EDGE('',*,*,#1700,.T.);
#3620=CARTESIAN_POINT('',(-20.,0.,-15.));
#3630=DIRECTION('',(0.,-1.,0.));
#3640=VECTOR('',#3630,1.);
#3650=LINE('',#3620,#3640);
#3660=EDGE_CURVE('',#2590,#1610,#3650,.T.);
#3670=ORIENTED_EDGE('',*,*,#3660,.T.);
#3680=ORIENTED_EDGE('',*,*,#2730,.F.);
#3690=EDGE_LOOP('',(#3680,#3670,#3610,#3600));
#3700=FACE_OUTER_BOUND('',#3690,.T.);
#3710=ADVANCED_FACE('',(#3590,#3700),#3320,.T.);
#3720=CARTESIAN_POINT('',(-20.,-60.5,-20.4));
#3730=DIRECTION('',(1.,0.,0.));
#3740=DIRECTION('',(0.,-1.,0.));
#3750=AXIS2_PLACEMENT_3D('',#3720,#3730,#3740);
#3760=PLANE('',#3750);
#3770=ORIENTED_EDGE('',*,*,#2600,.F.);
#3780=ORIENTED_EDGE('',*,*,#3660,.F.);
#3790=ORIENTED_EDGE('',*,*,#1620,.F.);
#3800=ORIENTED_EDGE('',*,*,#1230,.F.);
#3810=ORIENTED_EDGE('',*,*,#3150,.F.);
#3820=CARTESIAN_POINT('',(-20.,0.,20.));
#3830=DIRECTION('',(0.,1.,0.));
#3840=VECTOR('',#3830,1.);
#3850=LINE('',#3820,#3840);
#3860=EDGE_CURVE('',#2570,#3140,#3850,.T.);
#3870=ORIENTED_EDGE('',*,*,#3860,.T.);
#3880=EDGE_LOOP('',(#3870,#3810,#3800,#3790,#3780,#3770));
#3890=FACE_OUTER_BOUND('',#3880,.T.);
#3900=ADVANCED_FACE('',(#3890),#3760,.F.);
#3910=CARTESIAN_POINT('',(-20.4,-5.05,20.));
#3920=DIRECTION('',(0.,0.,-1.));
#3930=DIRECTION('',(-1.,0.,0.));
#3940=AXIS2_PLACEMENT_3D('',#3910,#3920,#3930);
#3950=PLANE('',#3940);
#3960=ORIENTED_EDGE('',*,*,#2160,.F.);
#3970=ORIENTED_EDGE('',*,*,#2660,.F.);
#3980=ORIENTED_EDGE('',*,*,#3860,.F.);
#3990=ORIENTED_EDGE('',*,*,#3230,.F.);
#4000=EDGE_LOOP('',(#3990,#3980,#3970,#3960));
#4010=FACE_OUTER_BOUND('',#4000,.T.);
#4020=ADVANCED_FACE('',(#4010),#3950,.F.);
#4030=CARTESIAN_POINT('',(4.5,-66.0000024,0.));
#4040=DIRECTION('',(1.,0.,-1.86984930463184E-16));
#4050=DIRECTION('',(1.86984930463184E-16,0.,1.));
#4060=AXIS2_PLACEMENT_3D('',#4030,#4040,#4050);
#4070=PLANE('',#4060);
#4080=CARTESIAN_POINT('',(4.5,0.0500000000000007,-1.5));
#4090=DIRECTION('',(0.,-1.,0.));
#4100=VECTOR('',#4090,1.);
#4110=LINE('',#4080,#4100);
#4120=EDGE_CURVE('',#2890,#2340,#4110,.T.);
#4130=ORIENTED_EDGE('',*,*,#4120,.T.);
#4140=ORIENTED_EDGE('',*,*,#2900,.F.);
#4150=ORIENTED_EDGE('',*,*,#710,.T.);
#4160=ORIENTED_EDGE('',*,*,#2410,.T.);
#4170=EDGE_LOOP('',(#4160,#4150,#4140,#4130));
#4180=FACE_OUTER_BOUND('',#4170,.T.);
#4190=ADVANCED_FACE('',(#4180),#4070,.F.);
#4200=CARTESIAN_POINT('',(-4.5,-66.0000024,9.5));
#4210=DIRECTION('',(-1.,0.,1.86984930463184E-16));
#4220=DIRECTION('',(-1.86984930463184E-16,0.,-1.));
#4230=AXIS2_PLACEMENT_3D('',#4200,#4210,#4220);
#4240=PLANE('',#4230);
#4250=CARTESIAN_POINT('',(-4.5,0.0500000000000007,-1.5));
#4260=DIRECTION('',(0.,-1.,0.));
#4270=VECTOR('',#4260,1.);
#4280=LINE('',#4250,#4270);
#4290=EDGE_CURVE('',#2980,#2320,#4280,.T.);
#4300=ORIENTED_EDGE('',*,*,#4290,.F.);
#4310=ORIENTED_EDGE('',*,*,#2480,.T.);
#4320=ORIENTED_EDGE('',*,*,#540,.F.);
#4330=ORIENTED_EDGE('',*,*,#3050,.F.);
#4340=EDGE_LOOP('',(#4330,#4320,#4310,#4300));
#4350=FACE_OUTER_BOUND('',#4340,.T.);
#4360=ADVANCED_FACE('',(#4350),#4240,.F.);
#4370=CARTESIAN_POINT('',(-4.5,-41.5,24.0000024));
#4380=DIRECTION('',(-1.,3.33066907387547E-16,0.));
#4390=DIRECTION('',(-3.33066907387547E-16,-1.,0.));
#4400=AXIS2_PLACEMENT_3D('',#4370,#4380,#4390);
#4410=PLANE('',#4400);
#4420=CARTESIAN_POINT('',(-4.5,-33.5,-14.95));
#4430=DIRECTION('',(0.,0.,-1.));
#4440=VECTOR('',#4430,1.);
#4450=LINE('',#4420,#4440);
#4460=EDGE_CURVE('',#3490,#940,#4450,.T.);
#4470=ORIENTED_EDGE('',*,*,#4460,.F.);
#4480=ORIENTED_EDGE('',*,*,#1110,.F.);
#4490=CARTESIAN_POINT('',(-4.5,-49.5,24.0000024));
#4500=DIRECTION('',(0.,0.,-1.));
#4510=VECTOR('',#4500,1.);
#4520=LINE('',#4490,#4510);
#4530=EDGE_CURVE('',#3390,#1040,#4520,.T.);
#4540=ORIENTED_EDGE('',*,*,#4530,.T.);
#4550=ORIENTED_EDGE('',*,*,#3560,.T.);
#4560=EDGE_LOOP('',(#4550,#4540,#4480,#4470));
#4570=FACE_OUTER_BOUND('',#4560,.T.);
#4580=ADVANCED_FACE('',(#4570),#4410,.F.);
#4590=CARTESIAN_POINT('',(0.,-49.5,24.0000024));
#4600=DIRECTION('',(0.,0.,-1.));
#4610=DIRECTION('',(0.,-1.,0.));
#4620=AXIS2_PLACEMENT_3D('',#4590,#4600,#4610);
#4630=CYLINDRICAL_SURFACE('',#4620,4.5);
#4640=ORIENTED_EDGE('',*,*,#300,.T.);
#4650=ORIENTED_EDGE('',*,*,#3400,.F.);
#4660=ORIENTED_EDGE('',*,*,#4530,.F.);
#4670=ORIENTED_EDGE('',*,*,#1050,.T.);
#4680=EDGE_LOOP('',(#4670,#4660,#4650,#4640));
#4690=FACE_OUTER_BOUND('',#4680,.T.);
#4700=ADVANCED_FACE('',(#4690),#4630,.F.);
#4710=CARTESIAN_POINT('',(-2.80477395694776E-16,0.0500000000000007,-1.5)
);
#4720=DIRECTION('',(0.,-1.,0.));
#4730=DIRECTION('',(-1.,0.,0.));
#4740=AXIS2_PLACEMENT_3D('',#4710,#4720,#4730);
#4750=CYLINDRICAL_SURFACE('',#4740,4.5);
#4760=ORIENTED_EDGE('',*,*,#2990,.F.);
#4770=ORIENTED_EDGE('',*,*,#4120,.F.);
#4780=ORIENTED_EDGE('',*,*,#2350,.T.);
#4790=ORIENTED_EDGE('',*,*,#4290,.T.);
#4800=EDGE_LOOP('',(#4790,#4780,#4770,#4760));
#4810=FACE_OUTER_BOUND('',#4800,.T.);
#4820=ADVANCED_FACE('',(#4810),#4750,.F.);
#4830=CARTESIAN_POINT('',(-9.98014458146396E-30,-33.5,-14.95));
#4840=DIRECTION('',(0.,0.,-1.));
#4850=DIRECTION('',(-1.,0.,0.));
#4860=AXIS2_PLACEMENT_3D('',#4830,#4840,#4850);
#4870=CYLINDRICAL_SURFACE('',#4860,4.5);
#4880=ORIENTED_EDGE('',*,*,#140,.F.);
#4890=ORIENTED_EDGE('',*,*,#950,.T.);
#4900=ORIENTED_EDGE('',*,*,#4460,.T.);
#4910=ORIENTED_EDGE('',*,*,#3500,.F.);
#4920=EDGE_LOOP('',(#4910,#4900,#4890,#4880));
#4930=FACE_OUTER_BOUND('',#4920,.T.);
#4940=ADVANCED_FACE('',(#4930),#4870,.F.);
#4950=CLOSED_SHELL('',(#4820,#4940,#400,#820,#1490,#1800,#2200,#2770,
#3270,#3710,#3900,#4020,#4190,#4360,#4580,#4700));
#4960=MANIFOLD_SOLID_BREP('',#4950);
#4970=CARTESIAN_POINT('',(0.,0.,0.));
#4980=DIRECTION('',(0.,0.,1.));
#4990=DIRECTION('',(1.,0.,0.));
#5000=AXIS2_PLACEMENT_3D('',#4970,#4980,#4990);
#5010=APPLICATION_CONTEXT(' ');
#5020=APPLICATION_PROTOCOL_DEFINITION(' ','automotive_design',1998,#5010
);
#5030=PRODUCT_CONTEXT('',#5010,'mechanical');
#5040=PRODUCT_DEFINITION_CONTEXT('part definition',#5010,'design');
#5050=PRODUCT(
'Haltewinkel-MMS-44_60x40x40x5-Langloch_44.0205.5_PX173453',
'Haltewinkel-MMS-44_60x40x40x5-Langloch_44.0205.5_PX173453','',(#5030));
#5060=PRODUCT_RELATED_PRODUCT_CATEGORY('part',' ',(#5050));
#5070=PRODUCT_DEFINITION_FORMATION_WITH_SPECIFIED_SOURCE('','',#5050,
.BOUGHT.);
#5080=PRODUCT_DEFINITION('',' ',#5070,#5040);
#5090=PRODUCT_DEFINITION_SHAPE('','',#5080);
#5100=DIMENSIONAL_EXPONENTS(1.,0.,0.,0.,0.,0.,0.);
#5110=DIMENSIONAL_EXPONENTS(0.,0.,0.,0.,0.,0.,0.);
#5120=DIMENSIONAL_EXPONENTS(0.,0.,0.,0.,0.,0.,0.);
#5130=(LENGTH_UNIT() NAMED_UNIT(*) SI_UNIT(.MILLI.,.METRE.));
#5140=(NAMED_UNIT(*) PLANE_ANGLE_UNIT() SI_UNIT($,.RADIAN.));
#5150=(NAMED_UNIT(*) SI_UNIT($,.STERADIAN.) SOLID_ANGLE_UNIT());
#5160=(GEOMETRIC_REPRESENTATION_CONTEXT(3) 
GLOBAL_UNCERTAINTY_ASSIGNED_CONTEXT((#5170)) 
GLOBAL_UNIT_ASSIGNED_CONTEXT((#5130,#5140,#5150)) REPRESENTATION_CONTEXT
('',''));
#5170=UNCERTAINTY_MEASURE_WITH_UNIT(LENGTH_MEASURE(1.E-6),#5130,
'distance_accuracy_value','maximum gap value');
#5180=ADVANCED_BREP_SHAPE_REPRESENTATION('',(#5000,#4960),#5160);
#5190=SHAPE_DEFINITION_REPRESENTATION(#5090,#5180);
#5200=COLOUR_RGB('',0.690196096897125,0.886274576187134,1.);
#5210=FILL_AREA_STYLE_COLOUR('',#5200);
#5220=FILL_AREA_STYLE('',(#5210));
#5230=SURFACE_STYLE_FILL_AREA(#5220);
#5240=SURFACE_SIDE_STYLE('',(#5230));
#5250=SURFACE_STYLE_USAGE(.BOTH.,#5240);
#5260=PRESENTATION_STYLE_ASSIGNMENT((#5250));
#5270=STYLED_ITEM('',(#5260),#4960);
#5280=DRAUGHTING_MODEL('',(#5270),#5160);
#5290=CARTESIAN_POINT('',(20.,20.,-5.));
#5300=DIRECTION('',(0.,1.,0.));
#5310=DIRECTION('',(1.,0.,0.));
#5320=AXIS2_PLACEMENT_3D('',#5290,#5300,#5310);
#5330=ITEM_DEFINED_TRANSFORMATION(
'Haltewinkel-MMS-44_60x40x40x5-Langloch_44.0205.5_PX173453','',#5000,
#5320);
#5340=APPLICATION_CONTEXT(' ');
#5350=APPLICATION_PROTOCOL_DEFINITION(' ','automotive_design',1998,#5340
);
#5360=PRODUCT_CONTEXT('',#5340,'mechanical');
#5370=PRODUCT_DEFINITION_CONTEXT('part definition',#5340,'design');
#5380=PRODUCT(
'Haltewinkel-MMS-44_60x40x40x5-Langloch_44.0205.5_PX173453',
'Haltewinkel-MMS-44_60x40x40x5-Langloch_44.0205.5_PX173453','',(#5360));
#5390=PRODUCT_RELATED_PRODUCT_CATEGORY('part',' ',(#5380));
#5400=PRODUCT_DEFINITION_FORMATION_WITH_SPECIFIED_SOURCE('','',#5380,
.BOUGHT.);
#5410=PRODUCT_DEFINITION('',' ',#5400,#5370);
#5420=PRODUCT_DEFINITION_SHAPE('','',#5410);
#5430=DIMENSIONAL_EXPONENTS(1.,0.,0.,0.,0.,0.,0.);
#5440=DIMENSIONAL_EXPONENTS(0.,0.,0.,0.,0.,0.,0.);
#5450=DIMENSIONAL_EXPONENTS(0.,0.,0.,0.,0.,0.,0.);
#5460=(LENGTH_UNIT() NAMED_UNIT(*) SI_UNIT(.MILLI.,.METRE.));
#5470=(NAMED_UNIT(*) PLANE_ANGLE_UNIT() SI_UNIT($,.RADIAN.));
#5480=(NAMED_UNIT(*) SI_UNIT($,.STERADIAN.) SOLID_ANGLE_UNIT());
#5490=(GEOMETRIC_REPRESENTATION_CONTEXT(3) 
GLOBAL_UNCERTAINTY_ASSIGNED_CONTEXT((#5500)) 
GLOBAL_UNIT_ASSIGNED_CONTEXT((#5460,#5470,#5480)) REPRESENTATION_CONTEXT
('',''));
#5500=UNCERTAINTY_MEASURE_WITH_UNIT(LENGTH_MEASURE(1.E-6),#5460,
'distance_accuracy_value','maximum gap value');
#5510=SHAPE_REPRESENTATION('',(#5000,#5320),#5490);
#5520=SHAPE_DEFINITION_REPRESENTATION(#5420,#5510);
#5530=(REPRESENTATION_RELATIONSHIP('','',#5180,#5510) 
REPRESENTATION_RELATIONSHIP_WITH_TRANSFORMATION(#5330) 
SHAPE_REPRESENTATION_RELATIONSHIP());
#5540=NEXT_ASSEMBLY_USAGE_OCCURRENCE('1','',
'Haltewinkel-MMS-44_60x40x40x5-Langloch_44.0205.5_PX173453',#5410,#5080,
'');
#5550=PRODUCT_DEFINITION_SHAPE('','',#5540);
#5560=CONTEXT_DEPENDENT_SHAPE_REPRESENTATION(#5530,#5550);
ENDSEC;
END-ISO-10303-21;
