ISO-10303-21;
HEADER;
FILE_DESCRIPTION(('Creo Elements/Direct Modeling STEP Export'),'2;1');
FILE_NAME(
'//KR-CAD2/PhoenixTemp/karl.letzgus/Konvertierung/44.0301.1_Profilabdeck
ung-Halbrund-MMS-44_R10-schwarz-leitf\S\dhig.stp','2022-03-21T 9:01:24',
(''),(''),
'PTC Creo Elements/Direct Modeling STEP processor for AP214 (Solid Model
)',
'PTC Creo Elements/Direct Modeling 19.0C  15-Aug-2015 (C) Parametric Tec
hnology GmbH','');
FILE_SCHEMA(('AUTOMOTIVE_DESIGN { 1 0 10303 214 1 1 1 1 }'));
ENDSEC;
DATA;
#10=CARTESIAN_POINT('',(0.,0.,0.));
#20=DIRECTION('',(0.,0.,1.));
#30=DIRECTION('',(1.,0.,0.));
#40=AXIS2_PLACEMENT_3D('',#10,#20,#30);
#50=PLANE('',#40);
#60=CARTESIAN_POINT('',(-0.892031847208273,-3.40454224029132,0.));
#70=DIRECTION('',(1.,0.,0.));
#80=VECTOR('',#70,1.);
#90=LINE('',#60,#80);
#100=CARTESIAN_POINT('',(-9.89203184720827,-3.40454224029132,0.));
#110=VERTEX_POINT('',#100);
#120=CARTESIAN_POINT('',(8.10796815279173,-3.40454224029132,0.));
#130=VERTEX_POINT('',#120);
#140=EDGE_CURVE('',#110,#130,#90,.T.);
#150=ORIENTED_EDGE('',*,*,#140,.F.);
#160=CARTESIAN_POINT('',(8.10796815279173,1.79545775970868,0.));
#170=DIRECTION('',(0.,1.,0.));
#180=VECTOR('',#170,1.);
#190=LINE('',#160,#180);
#200=CARTESIAN_POINT('',(8.10796815279173,-0.404542240291318,0.));
#210=VERTEX_POINT('',#200);
#220=EDGE_CURVE('',#130,#210,#190,.T.);
#230=ORIENTED_EDGE('',*,*,#220,.F.);
#240=CARTESIAN_POINT('',(-0.892031847208273,-0.404542240291318,0.));
#250=DIRECTION('',(-1.,0.,0.));
#260=VECTOR('',#250,1.);
#270=LINE('',#240,#260);
#280=CARTESIAN_POINT('',(4.10796815279173,-0.404542240291318,0.));
#290=VERTEX_POINT('',#280);
#300=EDGE_CURVE('',#210,#290,#270,.T.);
#310=ORIENTED_EDGE('',*,*,#300,.F.);
#320=CARTESIAN_POINT('',(4.10796815279173,1.79545775970868,0.));
#330=DIRECTION('',(0.,1.,0.));
#340=VECTOR('',#330,1.);
#350=LINE('',#320,#340);
#360=CARTESIAN_POINT('',(4.10796815279173,1.79545775970868,0.));
#370=VERTEX_POINT('',#360);
#380=EDGE_CURVE('',#290,#370,#350,.T.);
#390=ORIENTED_EDGE('',*,*,#380,.F.);
#400=CARTESIAN_POINT('',(-0.892031847208273,1.79545775970868,0.));
#410=DIRECTION('',(-1.,0.,0.));
#420=VECTOR('',#410,1.);
#430=LINE('',#400,#420);
#440=CARTESIAN_POINT('',(9.10796815279173,1.79545775970868,0.));
#450=VERTEX_POINT('',#440);
#460=EDGE_CURVE('',#450,#370,#430,.T.);
#470=ORIENTED_EDGE('',*,*,#460,.T.);
#480=CARTESIAN_POINT('',(-0.892031847208273,1.79545775970868,0.));
#490=DIRECTION('',(0.,0.,-1.));
#500=DIRECTION('',(1.,0.,0.));
#510=AXIS2_PLACEMENT_3D('',#480,#490,#500);
#520=CIRCLE('',#510,10.);
#530=CARTESIAN_POINT('',(-10.8920318472083,1.79545775970868,0.));
#540=VERTEX_POINT('',#530);
#550=EDGE_CURVE('',#540,#450,#520,.T.);
#560=ORIENTED_EDGE('',*,*,#550,.T.);
#570=CARTESIAN_POINT('',(-0.892031847208273,1.79545775970868,0.));
#580=DIRECTION('',(-1.,0.,0.));
#590=VECTOR('',#580,1.);
#600=LINE('',#570,#590);
#610=CARTESIAN_POINT('',(-5.89203184720827,1.79545775970868,0.));
#620=VERTEX_POINT('',#610);
#630=EDGE_CURVE('',#620,#540,#600,.T.);
#640=ORIENTED_EDGE('',*,*,#630,.T.);
#650=CARTESIAN_POINT('',(-5.89203184720827,1.79545775970868,0.));
#660=DIRECTION('',(0.,-1.,0.));
#670=VECTOR('',#660,1.);
#680=LINE('',#650,#670);
#690=CARTESIAN_POINT('',(-5.89203184720827,-0.404542240291318,0.));
#700=VERTEX_POINT('',#690);
#710=EDGE_CURVE('',#620,#700,#680,.T.);
#720=ORIENTED_EDGE('',*,*,#710,.F.);
#730=CARTESIAN_POINT('',(-0.892031847208273,-0.404542240291318,0.));
#740=DIRECTION('',(-1.,0.,0.));
#750=VECTOR('',#740,1.);
#760=LINE('',#730,#750);
#770=CARTESIAN_POINT('',(-9.89203184720827,-0.404542240291318,0.));
#780=VERTEX_POINT('',#770);
#790=EDGE_CURVE('',#700,#780,#760,.T.);
#800=ORIENTED_EDGE('',*,*,#790,.F.);
#810=CARTESIAN_POINT('',(-9.89203184720827,1.79545775970868,0.));
#820=DIRECTION('',(0.,-1.,0.));
#830=VECTOR('',#820,1.);
#840=LINE('',#810,#830);
#850=EDGE_CURVE('',#780,#110,#840,.T.);
#860=ORIENTED_EDGE('',*,*,#850,.F.);
#870=EDGE_LOOP('',(#860,#800,#720,#640,#560,#470,#390,#310,#230,#150));
#880=FACE_OUTER_BOUND('',#870,.T.);
#890=ADVANCED_FACE('',(#880),#50,.F.);
#900=CARTESIAN_POINT('',(0.,0.,100.));
#910=DIRECTION('',(0.,0.,1.));
#920=DIRECTION('',(1.,0.,0.));
#930=AXIS2_PLACEMENT_3D('',#900,#910,#920);
#940=PLANE('',#930);
#950=CARTESIAN_POINT('',(-9.89203184720827,1.79545775970868,100.));
#960=DIRECTION('',(0.,-1.,0.));
#970=VECTOR('',#960,1.);
#980=LINE('',#950,#970);
#990=CARTESIAN_POINT('',(-9.89203184720827,-0.404542240291318,100.));
#1000=VERTEX_POINT('',#990);
#1010=CARTESIAN_POINT('',(-9.89203184720827,-3.40454224029132,100.));
#1020=VERTEX_POINT('',#1010);
#1030=EDGE_CURVE('',#1000,#1020,#980,.T.);
#1040=ORIENTED_EDGE('',*,*,#1030,.T.);
#1050=CARTESIAN_POINT('',(-0.892031847208273,-0.404542240291318,100.));
#1060=DIRECTION('',(-1.,0.,0.));
#1070=VECTOR('',#1060,1.);
#1080=LINE('',#1050,#1070);
#1090=CARTESIAN_POINT('',(-5.89203184720827,-0.404542240291318,100.));
#1100=VERTEX_POINT('',#1090);
#1110=EDGE_CURVE('',#1100,#1000,#1080,.T.);
#1120=ORIENTED_EDGE('',*,*,#1110,.T.);
#1130=CARTESIAN_POINT('',(-5.89203184720827,1.79545775970868,100.));
#1140=DIRECTION('',(0.,-1.,0.));
#1150=VECTOR('',#1140,1.);
#1160=LINE('',#1130,#1150);
#1170=CARTESIAN_POINT('',(-5.89203184720827,1.79545775970868,100.));
#1180=VERTEX_POINT('',#1170);
#1190=EDGE_CURVE('',#1180,#1100,#1160,.T.);
#1200=ORIENTED_EDGE('',*,*,#1190,.T.);
#1210=CARTESIAN_POINT('',(-0.892031847208273,1.79545775970868,100.));
#1220=DIRECTION('',(-1.,0.,0.));
#1230=VECTOR('',#1220,1.);
#1240=LINE('',#1210,#1230);
#1250=CARTESIAN_POINT('',(-10.8920318472083,1.79545775970868,100.));
#1260=VERTEX_POINT('',#1250);
#1270=EDGE_CURVE('',#1180,#1260,#1240,.T.);
#1280=ORIENTED_EDGE('',*,*,#1270,.F.);
#1290=CARTESIAN_POINT('',(-0.892031847208273,1.79545775970868,100.));
#1300=DIRECTION('',(0.,0.,-1.));
#1310=DIRECTION('',(1.,0.,0.));
#1320=AXIS2_PLACEMENT_3D('',#1290,#1300,#1310);
#1330=CIRCLE('',#1320,10.);
#1340=CARTESIAN_POINT('',(9.10796815279173,1.79545775970868,100.));
#1350=VERTEX_POINT('',#1340);
#1360=EDGE_CURVE('',#1260,#1350,#1330,.T.);
#1370=ORIENTED_EDGE('',*,*,#1360,.F.);
#1380=CARTESIAN_POINT('',(-0.892031847208273,1.79545775970868,100.));
#1390=DIRECTION('',(-1.,0.,0.));
#1400=VECTOR('',#1390,1.);
#1410=LINE('',#1380,#1400);
#1420=CARTESIAN_POINT('',(4.10796815279173,1.79545775970868,100.));
#1430=VERTEX_POINT('',#1420);
#1440=EDGE_CURVE('',#1350,#1430,#1410,.T.);
#1450=ORIENTED_EDGE('',*,*,#1440,.F.);
#1460=CARTESIAN_POINT('',(4.10796815279173,1.79545775970868,100.));
#1470=DIRECTION('',(0.,1.,0.));
#1480=VECTOR('',#1470,1.);
#1490=LINE('',#1460,#1480);
#1500=CARTESIAN_POINT('',(4.10796815279173,-0.404542240291318,100.));
#1510=VERTEX_POINT('',#1500);
#1520=EDGE_CURVE('',#1510,#1430,#1490,.T.);
#1530=ORIENTED_EDGE('',*,*,#1520,.T.);
#1540=CARTESIAN_POINT('',(-0.892031847208273,-0.404542240291318,100.));
#1550=DIRECTION('',(-1.,0.,0.));
#1560=VECTOR('',#1550,1.);
#1570=LINE('',#1540,#1560);
#1580=CARTESIAN_POINT('',(8.10796815279173,-0.404542240291318,100.));
#1590=VERTEX_POINT('',#1580);
#1600=EDGE_CURVE('',#1590,#1510,#1570,.T.);
#1610=ORIENTED_EDGE('',*,*,#1600,.T.);
#1620=CARTESIAN_POINT('',(8.10796815279173,1.79545775970868,100.));
#1630=DIRECTION('',(0.,1.,0.));
#1640=VECTOR('',#1630,1.);
#1650=LINE('',#1620,#1640);
#1660=CARTESIAN_POINT('',(8.10796815279173,-3.40454224029132,100.));
#1670=VERTEX_POINT('',#1660);
#1680=EDGE_CURVE('',#1670,#1590,#1650,.T.);
#1690=ORIENTED_EDGE('',*,*,#1680,.T.);
#1700=CARTESIAN_POINT('',(-0.892031847208273,-3.40454224029132,100.));
#1710=DIRECTION('',(1.,0.,0.));
#1720=VECTOR('',#1710,1.);
#1730=LINE('',#1700,#1720);
#1740=EDGE_CURVE('',#1020,#1670,#1730,.T.);
#1750=ORIENTED_EDGE('',*,*,#1740,.T.);
#1760=EDGE_LOOP('',(#1750,#1690,#1610,#1530,#1450,#1370,#1280,#1200,
#1120,#1040));
#1770=FACE_OUTER_BOUND('',#1760,.T.);
#1780=ADVANCED_FACE('',(#1770),#940,.T.);
#1790=CARTESIAN_POINT('',(8.10796815279173,-3.40454224029132,0.));
#1800=DIRECTION('',(-0.,-1.,-0.));
#1810=DIRECTION('',(-1.,0.,0.));
#1820=AXIS2_PLACEMENT_3D('',#1790,#1800,#1810);
#1830=PLANE('',#1820);
#1840=CARTESIAN_POINT('',(-9.89203184720827,-3.40454224029132,0.));
#1850=DIRECTION('',(0.,0.,1.));
#1860=VECTOR('',#1850,1.);
#1870=LINE('',#1840,#1860);
#1880=EDGE_CURVE('',#110,#1020,#1870,.T.);
#1890=ORIENTED_EDGE('',*,*,#1880,.F.);
#1900=ORIENTED_EDGE('',*,*,#1740,.F.);
#1910=CARTESIAN_POINT('',(8.10796815279173,-3.40454224029132,0.));
#1920=DIRECTION('',(0.,0.,1.));
#1930=VECTOR('',#1920,1.);
#1940=LINE('',#1910,#1930);
#1950=EDGE_CURVE('',#130,#1670,#1940,.T.);
#1960=ORIENTED_EDGE('',*,*,#1950,.T.);
#1970=ORIENTED_EDGE('',*,*,#140,.T.);
#1980=EDGE_LOOP('',(#1970,#1960,#1900,#1890));
#1990=FACE_OUTER_BOUND('',#1980,.T.);
#2000=ADVANCED_FACE('',(#1990),#1830,.T.);
#2010=CARTESIAN_POINT('',(8.10796815279173,-0.404542240291318,0.));
#2020=DIRECTION('',(1.,0.,0.));
#2030=DIRECTION('',(0.,-1.,0.));
#2040=AXIS2_PLACEMENT_3D('',#2010,#2020,#2030);
#2050=PLANE('',#2040);
#2060=ORIENTED_EDGE('',*,*,#1950,.F.);
#2070=ORIENTED_EDGE('',*,*,#1680,.F.);
#2080=CARTESIAN_POINT('',(8.10796815279173,-0.404542240291318,0.));
#2090=DIRECTION('',(0.,0.,1.));
#2100=VECTOR('',#2090,1.);
#2110=LINE('',#2080,#2100);
#2120=EDGE_CURVE('',#210,#1590,#2110,.T.);
#2130=ORIENTED_EDGE('',*,*,#2120,.T.);
#2140=ORIENTED_EDGE('',*,*,#220,.T.);
#2150=EDGE_LOOP('',(#2140,#2130,#2070,#2060));
#2160=FACE_OUTER_BOUND('',#2150,.T.);
#2170=ADVANCED_FACE('',(#2160),#2050,.T.);
#2180=CARTESIAN_POINT('',(4.10796815279173,-0.404542240291318,0.));
#2190=DIRECTION('',(-0.,1.,0.));
#2200=DIRECTION('',(1.,0.,0.));
#2210=AXIS2_PLACEMENT_3D('',#2180,#2190,#2200);
#2220=PLANE('',#2210);
#2230=ORIENTED_EDGE('',*,*,#2120,.F.);
#2240=ORIENTED_EDGE('',*,*,#1600,.F.);
#2250=CARTESIAN_POINT('',(4.10796815279173,-0.404542240291318,0.));
#2260=DIRECTION('',(0.,0.,1.));
#2270=VECTOR('',#2260,1.);
#2280=LINE('',#2250,#2270);
#2290=EDGE_CURVE('',#290,#1510,#2280,.T.);
#2300=ORIENTED_EDGE('',*,*,#2290,.T.);
#2310=ORIENTED_EDGE('',*,*,#300,.T.);
#2320=EDGE_LOOP('',(#2310,#2300,#2240,#2230));
#2330=FACE_OUTER_BOUND('',#2320,.T.);
#2340=ADVANCED_FACE('',(#2330),#2220,.T.);
#2350=CARTESIAN_POINT('',(4.10796815279173,1.79545775970868,0.));
#2360=DIRECTION('',(1.,0.,0.));
#2370=DIRECTION('',(0.,-1.,0.));
#2380=AXIS2_PLACEMENT_3D('',#2350,#2360,#2370);
#2390=PLANE('',#2380);
#2400=ORIENTED_EDGE('',*,*,#2290,.F.);
#2410=ORIENTED_EDGE('',*,*,#1520,.F.);
#2420=CARTESIAN_POINT('',(4.10796815279173,1.79545775970868,0.));
#2430=DIRECTION('',(0.,0.,1.));
#2440=VECTOR('',#2430,1.);
#2450=LINE('',#2420,#2440);
#2460=EDGE_CURVE('',#370,#1430,#2450,.T.);
#2470=ORIENTED_EDGE('',*,*,#2460,.T.);
#2480=ORIENTED_EDGE('',*,*,#380,.T.);
#2490=EDGE_LOOP('',(#2480,#2470,#2410,#2400));
#2500=FACE_OUTER_BOUND('',#2490,.T.);
#2510=ADVANCED_FACE('',(#2500),#2390,.T.);
#2520=CARTESIAN_POINT('',(9.10796815279173,1.79545775970868,0.));
#2530=DIRECTION('',(-0.,-1.,-0.));
#2540=DIRECTION('',(-1.,0.,0.));
#2550=AXIS2_PLACEMENT_3D('',#2520,#2530,#2540);
#2560=PLANE('',#2550);
#2570=ORIENTED_EDGE('',*,*,#2460,.F.);
#2580=ORIENTED_EDGE('',*,*,#1440,.T.);
#2590=CARTESIAN_POINT('',(9.10796815279173,1.79545775970868,0.));
#2600=DIRECTION('',(0.,0.,1.));
#2610=VECTOR('',#2600,1.);
#2620=LINE('',#2590,#2610);
#2630=EDGE_CURVE('',#450,#1350,#2620,.T.);
#2640=ORIENTED_EDGE('',*,*,#2630,.T.);
#2650=ORIENTED_EDGE('',*,*,#460,.F.);
#2660=EDGE_LOOP('',(#2650,#2640,#2580,#2570));
#2670=FACE_OUTER_BOUND('',#2660,.T.);
#2680=ADVANCED_FACE('',(#2670),#2560,.T.);
#2690=CARTESIAN_POINT('',(-0.892031847208273,1.79545775970868,0.));
#2700=DIRECTION('',(0.,0.,-1.));
#2710=DIRECTION('',(1.,0.,0.));
#2720=AXIS2_PLACEMENT_3D('',#2690,#2700,#2710);
#2730=CYLINDRICAL_SURFACE('',#2720,10.);
#2740=ORIENTED_EDGE('',*,*,#2630,.F.);
#2750=ORIENTED_EDGE('',*,*,#1360,.T.);
#2760=CARTESIAN_POINT('',(-10.8920318472083,1.79545775970868,0.));
#2770=DIRECTION('',(0.,0.,1.));
#2780=VECTOR('',#2770,1.);
#2790=LINE('',#2760,#2780);
#2800=EDGE_CURVE('',#540,#1260,#2790,.T.);
#2810=ORIENTED_EDGE('',*,*,#2800,.T.);
#2820=ORIENTED_EDGE('',*,*,#550,.F.);
#2830=EDGE_LOOP('',(#2820,#2810,#2750,#2740));
#2840=FACE_OUTER_BOUND('',#2830,.T.);
#2850=ADVANCED_FACE('',(#2840),#2730,.T.);
#2860=CARTESIAN_POINT('',(-5.89203184720827,1.79545775970868,0.));
#2870=DIRECTION('',(-0.,-1.,-0.));
#2880=DIRECTION('',(-1.,0.,0.));
#2890=AXIS2_PLACEMENT_3D('',#2860,#2870,#2880);
#2900=PLANE('',#2890);
#2910=ORIENTED_EDGE('',*,*,#2800,.F.);
#2920=ORIENTED_EDGE('',*,*,#1270,.T.);
#2930=CARTESIAN_POINT('',(-5.89203184720827,1.79545775970868,0.));
#2940=DIRECTION('',(0.,0.,1.));
#2950=VECTOR('',#2940,1.);
#2960=LINE('',#2930,#2950);
#2970=EDGE_CURVE('',#620,#1180,#2960,.T.);
#2980=ORIENTED_EDGE('',*,*,#2970,.T.);
#2990=ORIENTED_EDGE('',*,*,#630,.F.);
#3000=EDGE_LOOP('',(#2990,#2980,#2920,#2910));
#3010=FACE_OUTER_BOUND('',#3000,.T.);
#3020=ADVANCED_FACE('',(#3010),#2900,.T.);
#3030=CARTESIAN_POINT('',(-5.89203184720827,-0.404542240291318,0.));
#3040=DIRECTION('',(-1.,0.,0.));
#3050=DIRECTION('',(0.,1.,0.));
#3060=AXIS2_PLACEMENT_3D('',#3030,#3040,#3050);
#3070=PLANE('',#3060);
#3080=ORIENTED_EDGE('',*,*,#2970,.F.);
#3090=ORIENTED_EDGE('',*,*,#1190,.F.);
#3100=CARTESIAN_POINT('',(-5.89203184720827,-0.404542240291318,0.));
#3110=DIRECTION('',(0.,0.,1.));
#3120=VECTOR('',#3110,1.);
#3130=LINE('',#3100,#3120);
#3140=EDGE_CURVE('',#700,#1100,#3130,.T.);
#3150=ORIENTED_EDGE('',*,*,#3140,.T.);
#3160=ORIENTED_EDGE('',*,*,#710,.T.);
#3170=EDGE_LOOP('',(#3160,#3150,#3090,#3080));
#3180=FACE_OUTER_BOUND('',#3170,.T.);
#3190=ADVANCED_FACE('',(#3180),#3070,.T.);
#3200=CARTESIAN_POINT('',(-9.89203184720827,-0.404542240291318,0.));
#3210=DIRECTION('',(-0.,1.,0.));
#3220=DIRECTION('',(1.,0.,0.));
#3230=AXIS2_PLACEMENT_3D('',#3200,#3210,#3220);
#3240=PLANE('',#3230);
#3250=ORIENTED_EDGE('',*,*,#3140,.F.);
#3260=ORIENTED_EDGE('',*,*,#1110,.F.);
#3270=CARTESIAN_POINT('',(-9.89203184720827,-0.404542240291318,0.));
#3280=DIRECTION('',(0.,0.,1.));
#3290=VECTOR('',#3280,1.);
#3300=LINE('',#3270,#3290);
#3310=EDGE_CURVE('',#780,#1000,#3300,.T.);
#3320=ORIENTED_EDGE('',*,*,#3310,.T.);
#3330=ORIENTED_EDGE('',*,*,#790,.T.);
#3340=EDGE_LOOP('',(#3330,#3320,#3260,#3250));
#3350=FACE_OUTER_BOUND('',#3340,.T.);
#3360=ADVANCED_FACE('',(#3350),#3240,.T.);
#3370=CARTESIAN_POINT('',(-9.89203184720827,-3.40454224029132,0.));
#3380=DIRECTION('',(-1.,0.,0.));
#3390=DIRECTION('',(0.,1.,0.));
#3400=AXIS2_PLACEMENT_3D('',#3370,#3380,#3390);
#3410=PLANE('',#3400);
#3420=ORIENTED_EDGE('',*,*,#3310,.F.);
#3430=ORIENTED_EDGE('',*,*,#1030,.F.);
#3440=ORIENTED_EDGE('',*,*,#1880,.T.);
#3450=ORIENTED_EDGE('',*,*,#850,.T.);
#3460=EDGE_LOOP('',(#3450,#3440,#3430,#3420));
#3470=FACE_OUTER_BOUND('',#3460,.T.);
#3480=ADVANCED_FACE('',(#3470),#3410,.T.);
#3490=CLOSED_SHELL('',(#2000,#2170,#2340,#2510,#2680,#2850,#3020,#3190,
#3360,#3480,#1780,#890));
#3500=MANIFOLD_SOLID_BREP('',#3490);
#3510=CARTESIAN_POINT('',(0.,0.,0.));
#3520=DIRECTION('',(0.,0.,1.));
#3530=DIRECTION('',(1.,0.,0.));
#3540=AXIS2_PLACEMENT_3D('',#3510,#3520,#3530);
#3550=APPLICATION_CONTEXT(' ');
#3560=APPLICATION_PROTOCOL_DEFINITION(' ','automotive_design',1998,#3550
);
#3570=PRODUCT_CONTEXT('',#3550,'mechanical');
#3580=PRODUCT_DEFINITION_CONTEXT('part definition',#3550,'design');
#3590=PRODUCT(
'Profilabdeckung-Halbrund-MMS-44_R10-schwarz-leitf\S\dhig_44.0301.1_PX17
4830',
'Profilabdeckung-Halbrund-MMS-44_R10-schwarz-leitf\S\dhig_44.0301.1_PX17
4830','',(#3570));
#3600=PRODUCT_RELATED_PRODUCT_CATEGORY('part',' ',(#3590));
#3610=PRODUCT_DEFINITION_FORMATION_WITH_SPECIFIED_SOURCE('','',#3590,
.BOUGHT.);
#3620=PRODUCT_DEFINITION('',' ',#3610,#3580);
#3630=PRODUCT_DEFINITION_SHAPE('','',#3620);
#3640=DIMENSIONAL_EXPONENTS(1.,0.,0.,0.,0.,0.,0.);
#3650=DIMENSIONAL_EXPONENTS(0.,0.,0.,0.,0.,0.,0.);
#3660=DIMENSIONAL_EXPONENTS(0.,0.,0.,0.,0.,0.,0.);
#3670=(LENGTH_UNIT() NAMED_UNIT(*) SI_UNIT(.MILLI.,.METRE.));
#3680=(NAMED_UNIT(*) PLANE_ANGLE_UNIT() SI_UNIT($,.RADIAN.));
#3690=(NAMED_UNIT(*) SI_UNIT($,.STERADIAN.) SOLID_ANGLE_UNIT());
#3700=(GEOMETRIC_REPRESENTATION_CONTEXT(3) 
GLOBAL_UNCERTAINTY_ASSIGNED_CONTEXT((#3710)) 
GLOBAL_UNIT_ASSIGNED_CONTEXT((#3670,#3680,#3690)) REPRESENTATION_CONTEXT
('',''));
#3710=UNCERTAINTY_MEASURE_WITH_UNIT(LENGTH_MEASURE(1.E-6),#3670,
'distance_accuracy_value','maximum gap value');
#3720=ADVANCED_BREP_SHAPE_REPRESENTATION('',(#3540,#3500),#3700);
#3730=SHAPE_DEFINITION_REPRESENTATION(#3630,#3720);
#3740=COLOUR_RGB('',0.0823529437184334,0.0862745121121407,
0.0980392247438431);
#3750=FILL_AREA_STYLE_COLOUR('',#3740);
#3760=FILL_AREA_STYLE('',(#3750));
#3770=SURFACE_STYLE_FILL_AREA(#3760);
#3780=SURFACE_SIDE_STYLE('',(#3770));
#3790=SURFACE_STYLE_USAGE(.BOTH.,#3780);
#3800=PRESENTATION_STYLE_ASSIGNMENT((#3790));
#3810=STYLED_ITEM('',(#3800),#3500);
#3820=DRAUGHTING_MODEL('',(#3810),#3700);
ENDSEC;
END-ISO-10303-21;
