ISO-10303-21;
HEADER;
FILE_DESCRIPTION(('Creo Elements/Direct Modeling STEP Export'),'2;1');
FILE_NAME(
'//KR-CAD2/PhoenixTemp/karl.letzgus/Konvertierung/44.0301.10_Profilabdec
kung-Halbrund-MMS-44_R15-hohl-37x18-schwarz-leitf\S\dhig.stp',
'2022-03-21T 9:01:22',(''),(''),
'PTC Creo Elements/Direct Modeling STEP processor for AP214 (Solid Model
)',
'PTC Creo Elements/Direct Modeling 19.0C  15-Aug-2015 (C) Parametric Tec
hnology GmbH','');
FILE_SCHEMA(('AUTOMOTIVE_DESIGN { 1 0 10303 214 1 1 1 1 }'));
ENDSEC;
DATA;
#10=CARTESIAN_POINT('',(0.,0.,0.));
#20=DIRECTION('',(0.,0.,1.));
#30=DIRECTION('',(1.,0.,0.));
#40=AXIS2_PLACEMENT_3D('',#10,#20,#30);
#50=PLANE('',#40);
#60=CARTESIAN_POINT('',(-7.80097499999999,-11.132611,0.));
#70=DIRECTION('',(0.,0.,-1.));
#80=DIRECTION('',(1.,0.,0.));
#90=AXIS2_PLACEMENT_3D('',#60,#70,#80);
#100=CIRCLE('',#90,12.);
#110=CARTESIAN_POINT('',(-7.80097499999999,0.867388999999994,0.));
#120=VERTEX_POINT('',#110);
#130=CARTESIAN_POINT('',(4.199025,-11.132611,0.));
#140=VERTEX_POINT('',#130);
#150=EDGE_CURVE('',#120,#140,#100,.T.);
#160=ORIENTED_EDGE('',*,*,#150,.F.);
#170=CARTESIAN_POINT('',(-11.300975,-11.132611,0.));
#180=DIRECTION('',(-1.,0.,0.));
#190=VECTOR('',#180,1.);
#200=LINE('',#170,#190);
#210=CARTESIAN_POINT('',(-26.800975,-11.132611,0.));
#220=VERTEX_POINT('',#210);
#230=EDGE_CURVE('',#140,#220,#200,.T.);
#240=ORIENTED_EDGE('',*,*,#230,.F.);
#250=CARTESIAN_POINT('',(-14.800975,-11.132611,0.));
#260=DIRECTION('',(0.,0.,-1.));
#270=DIRECTION('',(1.,0.,0.));
#280=AXIS2_PLACEMENT_3D('',#250,#260,#270);
#290=CIRCLE('',#280,12.);
#300=CARTESIAN_POINT('',(-14.800975,0.867388999999999,0.));
#310=VERTEX_POINT('',#300);
#320=EDGE_CURVE('',#220,#310,#290,.T.);
#330=ORIENTED_EDGE('',*,*,#320,.F.);
#340=CARTESIAN_POINT('',(-11.300975,0.867388999999999,0.));
#350=DIRECTION('',(1.,0.,0.));
#360=VECTOR('',#350,1.);
#370=LINE('',#340,#360);
#380=EDGE_CURVE('',#310,#120,#370,.T.);
#390=ORIENTED_EDGE('',*,*,#380,.F.);
#400=EDGE_LOOP('',(#390,#330,#240,#160));
#410=FACE_BOUND('',#400,.T.);
#420=CARTESIAN_POINT('',(-11.300975,3.867389,0.));
#430=DIRECTION('',(1.,0.,0.));
#440=VECTOR('',#430,1.);
#450=LINE('',#420,#440);
#460=CARTESIAN_POINT('',(-14.800975,3.867389,0.));
#470=VERTEX_POINT('',#460);
#480=CARTESIAN_POINT('',(-7.800975,3.86738900000001,0.));
#490=VERTEX_POINT('',#480);
#500=EDGE_CURVE('',#470,#490,#450,.T.);
#510=ORIENTED_EDGE('',*,*,#500,.T.);
#520=CARTESIAN_POINT('',(-14.800975,-11.132611,0.));
#530=DIRECTION('',(0.,0.,-1.));
#540=DIRECTION('',(1.,0.,0.));
#550=AXIS2_PLACEMENT_3D('',#520,#530,#540);
#560=CIRCLE('',#550,15.);
#570=CARTESIAN_POINT('',(-29.800975,-11.132611,0.));
#580=VERTEX_POINT('',#570);
#590=EDGE_CURVE('',#580,#470,#560,.T.);
#600=ORIENTED_EDGE('',*,*,#590,.T.);
#610=CARTESIAN_POINT('',(-29.800975,-14.132611,0.));
#620=DIRECTION('',(0.,1.,0.));
#630=VECTOR('',#620,1.);
#640=LINE('',#610,#630);
#650=CARTESIAN_POINT('',(-29.800975,-14.132611,0.));
#660=VERTEX_POINT('',#650);
#670=EDGE_CURVE('',#660,#580,#640,.T.);
#680=ORIENTED_EDGE('',*,*,#670,.T.);
#690=CARTESIAN_POINT('',(-11.300975,-14.132611,0.));
#700=DIRECTION('',(-1.,0.,0.));
#710=VECTOR('',#700,1.);
#720=LINE('',#690,#710);
#730=CARTESIAN_POINT('',(-16.200975,-14.132611,0.));
#740=VERTEX_POINT('',#730);
#750=EDGE_CURVE('',#740,#660,#720,.T.);
#760=ORIENTED_EDGE('',*,*,#750,.T.);
#770=CARTESIAN_POINT('',(-16.200975,-14.132611,0.));
#780=DIRECTION('',(0.,-1.,0.));
#790=VECTOR('',#780,1.);
#800=LINE('',#770,#790);
#810=CARTESIAN_POINT('',(-16.200975,-16.232611,0.));
#820=VERTEX_POINT('',#810);
#830=EDGE_CURVE('',#740,#820,#800,.T.);
#840=ORIENTED_EDGE('',*,*,#830,.F.);
#850=CARTESIAN_POINT('',(-11.300975,-16.232611,0.));
#860=DIRECTION('',(-1.,0.,0.));
#870=VECTOR('',#860,1.);
#880=LINE('',#850,#870);
#890=CARTESIAN_POINT('',(-20.800975,-16.232611,0.));
#900=VERTEX_POINT('',#890);
#910=EDGE_CURVE('',#820,#900,#880,.T.);
#920=ORIENTED_EDGE('',*,*,#910,.F.);
#930=CARTESIAN_POINT('',(-20.800975,-14.132611,0.));
#940=DIRECTION('',(0.,-1.,0.));
#950=VECTOR('',#940,1.);
#960=LINE('',#930,#950);
#970=CARTESIAN_POINT('',(-20.800975,-20.632611,0.));
#980=VERTEX_POINT('',#970);
#990=EDGE_CURVE('',#900,#980,#960,.T.);
#1000=ORIENTED_EDGE('',*,*,#990,.F.);
#1010=CARTESIAN_POINT('',(-11.300975,-20.632611,0.));
#1020=DIRECTION('',(1.,0.,0.));
#1030=VECTOR('',#1020,1.);
#1040=LINE('',#1010,#1030);
#1050=CARTESIAN_POINT('',(-1.800975,-20.632611,0.));
#1060=VERTEX_POINT('',#1050);
#1070=EDGE_CURVE('',#980,#1060,#1040,.T.);
#1080=ORIENTED_EDGE('',*,*,#1070,.F.);
#1090=CARTESIAN_POINT('',(-1.800975,-14.132611,0.));
#1100=DIRECTION('',(0.,1.,0.));
#1110=VECTOR('',#1100,1.);
#1120=LINE('',#1090,#1110);
#1130=CARTESIAN_POINT('',(-1.800975,-16.232611,0.));
#1140=VERTEX_POINT('',#1130);
#1150=EDGE_CURVE('',#1060,#1140,#1120,.T.);
#1160=ORIENTED_EDGE('',*,*,#1150,.F.);
#1170=CARTESIAN_POINT('',(-11.300975,-16.232611,0.));
#1180=DIRECTION('',(-1.,0.,0.));
#1190=VECTOR('',#1180,1.);
#1200=LINE('',#1170,#1190);
#1210=CARTESIAN_POINT('',(-6.400975,-16.232611,0.));
#1220=VERTEX_POINT('',#1210);
#1230=EDGE_CURVE('',#1140,#1220,#1200,.T.);
#1240=ORIENTED_EDGE('',*,*,#1230,.F.);
#1250=CARTESIAN_POINT('',(-6.400975,-14.132611,0.));
#1260=DIRECTION('',(0.,1.,0.));
#1270=VECTOR('',#1260,1.);
#1280=LINE('',#1250,#1270);
#1290=CARTESIAN_POINT('',(-6.400975,-14.132611,0.));
#1300=VERTEX_POINT('',#1290);
#1310=EDGE_CURVE('',#1220,#1300,#1280,.T.);
#1320=ORIENTED_EDGE('',*,*,#1310,.F.);
#1330=CARTESIAN_POINT('',(-11.300975,-14.132611,0.));
#1340=DIRECTION('',(-1.,0.,0.));
#1350=VECTOR('',#1340,1.);
#1360=LINE('',#1330,#1350);
#1370=CARTESIAN_POINT('',(7.199025,-14.132611,0.));
#1380=VERTEX_POINT('',#1370);
#1390=EDGE_CURVE('',#1380,#1300,#1360,.T.);
#1400=ORIENTED_EDGE('',*,*,#1390,.T.);
#1410=CARTESIAN_POINT('',(7.199025,-14.132611,0.));
#1420=DIRECTION('',(0.,-1.,0.));
#1430=VECTOR('',#1420,1.);
#1440=LINE('',#1410,#1430);
#1450=CARTESIAN_POINT('',(7.199025,-11.132611,0.));
#1460=VERTEX_POINT('',#1450);
#1470=EDGE_CURVE('',#1460,#1380,#1440,.T.);
#1480=ORIENTED_EDGE('',*,*,#1470,.T.);
#1490=CARTESIAN_POINT('',(-7.80097499999999,-11.132611,0.));
#1500=DIRECTION('',(0.,0.,-1.));
#1510=DIRECTION('',(1.,0.,0.));
#1520=AXIS2_PLACEMENT_3D('',#1490,#1500,#1510);
#1530=CIRCLE('',#1520,15.);
#1540=EDGE_CURVE('',#490,#1460,#1530,.T.);
#1550=ORIENTED_EDGE('',*,*,#1540,.T.);
#1560=EDGE_LOOP('',(#1550,#1480,#1400,#1320,#1240,#1160,#1080,#1000,#920
,#840,#760,#680,#600,#510));
#1570=FACE_OUTER_BOUND('',#1560,.T.);
#1580=ADVANCED_FACE('',(#410,#1570),#50,.F.);
#1590=CARTESIAN_POINT('',(0.,0.,100.));
#1600=DIRECTION('',(0.,0.,1.));
#1610=DIRECTION('',(1.,0.,0.));
#1620=AXIS2_PLACEMENT_3D('',#1590,#1600,#1610);
#1630=PLANE('',#1620);
#1640=CARTESIAN_POINT('',(-11.300975,0.867388999999999,100.));
#1650=DIRECTION('',(1.,0.,0.));
#1660=VECTOR('',#1650,1.);
#1670=LINE('',#1640,#1660);
#1680=CARTESIAN_POINT('',(-14.800975,0.867388999999999,100.));
#1690=VERTEX_POINT('',#1680);
#1700=CARTESIAN_POINT('',(-7.80097499999999,0.867388999999994,100.));
#1710=VERTEX_POINT('',#1700);
#1720=EDGE_CURVE('',#1690,#1710,#1670,.T.);
#1730=ORIENTED_EDGE('',*,*,#1720,.T.);
#1740=CARTESIAN_POINT('',(-14.800975,-11.132611,100.));
#1750=DIRECTION('',(0.,0.,-1.));
#1760=DIRECTION('',(1.,0.,0.));
#1770=AXIS2_PLACEMENT_3D('',#1740,#1750,#1760);
#1780=CIRCLE('',#1770,12.);
#1790=CARTESIAN_POINT('',(-26.800975,-11.132611,100.));
#1800=VERTEX_POINT('',#1790);
#1810=EDGE_CURVE('',#1800,#1690,#1780,.T.);
#1820=ORIENTED_EDGE('',*,*,#1810,.T.);
#1830=CARTESIAN_POINT('',(-11.300975,-11.132611,100.));
#1840=DIRECTION('',(-1.,0.,0.));
#1850=VECTOR('',#1840,1.);
#1860=LINE('',#1830,#1850);
#1870=CARTESIAN_POINT('',(4.199025,-11.132611,100.));
#1880=VERTEX_POINT('',#1870);
#1890=EDGE_CURVE('',#1880,#1800,#1860,.T.);
#1900=ORIENTED_EDGE('',*,*,#1890,.T.);
#1910=CARTESIAN_POINT('',(-7.80097499999999,-11.132611,100.));
#1920=DIRECTION('',(0.,0.,-1.));
#1930=DIRECTION('',(1.,0.,0.));
#1940=AXIS2_PLACEMENT_3D('',#1910,#1920,#1930);
#1950=CIRCLE('',#1940,12.);
#1960=EDGE_CURVE('',#1710,#1880,#1950,.T.);
#1970=ORIENTED_EDGE('',*,*,#1960,.T.);
#1980=EDGE_LOOP('',(#1970,#1900,#1820,#1730));
#1990=FACE_BOUND('',#1980,.T.);
#2000=CARTESIAN_POINT('',(-7.80097499999999,-11.132611,100.));
#2010=DIRECTION('',(0.,0.,-1.));
#2020=DIRECTION('',(1.,0.,0.));
#2030=AXIS2_PLACEMENT_3D('',#2000,#2010,#2020);
#2040=CIRCLE('',#2030,15.);
#2050=CARTESIAN_POINT('',(-7.800975,3.86738900000001,100.));
#2060=VERTEX_POINT('',#2050);
#2070=CARTESIAN_POINT('',(7.199025,-11.132611,100.));
#2080=VERTEX_POINT('',#2070);
#2090=EDGE_CURVE('',#2060,#2080,#2040,.T.);
#2100=ORIENTED_EDGE('',*,*,#2090,.F.);
#2110=CARTESIAN_POINT('',(7.199025,-14.132611,100.));
#2120=DIRECTION('',(0.,-1.,0.));
#2130=VECTOR('',#2120,1.);
#2140=LINE('',#2110,#2130);
#2150=CARTESIAN_POINT('',(7.199025,-14.132611,100.));
#2160=VERTEX_POINT('',#2150);
#2170=EDGE_CURVE('',#2080,#2160,#2140,.T.);
#2180=ORIENTED_EDGE('',*,*,#2170,.F.);
#2190=CARTESIAN_POINT('',(-11.300975,-14.132611,100.));
#2200=DIRECTION('',(-1.,0.,0.));
#2210=VECTOR('',#2200,1.);
#2220=LINE('',#2190,#2210);
#2230=CARTESIAN_POINT('',(-6.400975,-14.132611,100.));
#2240=VERTEX_POINT('',#2230);
#2250=EDGE_CURVE('',#2160,#2240,#2220,.T.);
#2260=ORIENTED_EDGE('',*,*,#2250,.F.);
#2270=CARTESIAN_POINT('',(-6.400975,-14.132611,100.));
#2280=DIRECTION('',(0.,1.,0.));
#2290=VECTOR('',#2280,1.);
#2300=LINE('',#2270,#2290);
#2310=CARTESIAN_POINT('',(-6.400975,-16.232611,100.));
#2320=VERTEX_POINT('',#2310);
#2330=EDGE_CURVE('',#2320,#2240,#2300,.T.);
#2340=ORIENTED_EDGE('',*,*,#2330,.T.);
#2350=CARTESIAN_POINT('',(-11.300975,-16.232611,100.));
#2360=DIRECTION('',(-1.,0.,0.));
#2370=VECTOR('',#2360,1.);
#2380=LINE('',#2350,#2370);
#2390=CARTESIAN_POINT('',(-1.800975,-16.232611,100.));
#2400=VERTEX_POINT('',#2390);
#2410=EDGE_CURVE('',#2400,#2320,#2380,.T.);
#2420=ORIENTED_EDGE('',*,*,#2410,.T.);
#2430=CARTESIAN_POINT('',(-1.800975,-14.132611,100.));
#2440=DIRECTION('',(0.,1.,0.));
#2450=VECTOR('',#2440,1.);
#2460=LINE('',#2430,#2450);
#2470=CARTESIAN_POINT('',(-1.800975,-20.632611,100.));
#2480=VERTEX_POINT('',#2470);
#2490=EDGE_CURVE('',#2480,#2400,#2460,.T.);
#2500=ORIENTED_EDGE('',*,*,#2490,.T.);
#2510=CARTESIAN_POINT('',(-11.300975,-20.632611,100.));
#2520=DIRECTION('',(1.,0.,0.));
#2530=VECTOR('',#2520,1.);
#2540=LINE('',#2510,#2530);
#2550=CARTESIAN_POINT('',(-20.800975,-20.632611,100.));
#2560=VERTEX_POINT('',#2550);
#2570=EDGE_CURVE('',#2560,#2480,#2540,.T.);
#2580=ORIENTED_EDGE('',*,*,#2570,.T.);
#2590=CARTESIAN_POINT('',(-20.800975,-14.132611,100.));
#2600=DIRECTION('',(0.,-1.,0.));
#2610=VECTOR('',#2600,1.);
#2620=LINE('',#2590,#2610);
#2630=CARTESIAN_POINT('',(-20.800975,-16.232611,100.));
#2640=VERTEX_POINT('',#2630);
#2650=EDGE_CURVE('',#2640,#2560,#2620,.T.);
#2660=ORIENTED_EDGE('',*,*,#2650,.T.);
#2670=CARTESIAN_POINT('',(-11.300975,-16.232611,100.));
#2680=DIRECTION('',(-1.,0.,0.));
#2690=VECTOR('',#2680,1.);
#2700=LINE('',#2670,#2690);
#2710=CARTESIAN_POINT('',(-16.200975,-16.232611,100.));
#2720=VERTEX_POINT('',#2710);
#2730=EDGE_CURVE('',#2720,#2640,#2700,.T.);
#2740=ORIENTED_EDGE('',*,*,#2730,.T.);
#2750=CARTESIAN_POINT('',(-16.200975,-14.132611,100.));
#2760=DIRECTION('',(0.,-1.,0.));
#2770=VECTOR('',#2760,1.);
#2780=LINE('',#2750,#2770);
#2790=CARTESIAN_POINT('',(-16.200975,-14.132611,100.));
#2800=VERTEX_POINT('',#2790);
#2810=EDGE_CURVE('',#2800,#2720,#2780,.T.);
#2820=ORIENTED_EDGE('',*,*,#2810,.T.);
#2830=CARTESIAN_POINT('',(-11.300975,-14.132611,100.));
#2840=DIRECTION('',(-1.,0.,0.));
#2850=VECTOR('',#2840,1.);
#2860=LINE('',#2830,#2850);
#2870=CARTESIAN_POINT('',(-29.800975,-14.132611,100.));
#2880=VERTEX_POINT('',#2870);
#2890=EDGE_CURVE('',#2800,#2880,#2860,.T.);
#2900=ORIENTED_EDGE('',*,*,#2890,.F.);
#2910=CARTESIAN_POINT('',(-29.800975,-14.132611,100.));
#2920=DIRECTION('',(0.,1.,0.));
#2930=VECTOR('',#2920,1.);
#2940=LINE('',#2910,#2930);
#2950=CARTESIAN_POINT('',(-29.800975,-11.132611,100.));
#2960=VERTEX_POINT('',#2950);
#2970=EDGE_CURVE('',#2880,#2960,#2940,.T.);
#2980=ORIENTED_EDGE('',*,*,#2970,.F.);
#2990=CARTESIAN_POINT('',(-14.800975,-11.132611,100.));
#3000=DIRECTION('',(0.,0.,-1.));
#3010=DIRECTION('',(1.,0.,0.));
#3020=AXIS2_PLACEMENT_3D('',#2990,#3000,#3010);
#3030=CIRCLE('',#3020,15.);
#3040=CARTESIAN_POINT('',(-14.800975,3.867389,100.));
#3050=VERTEX_POINT('',#3040);
#3060=EDGE_CURVE('',#2960,#3050,#3030,.T.);
#3070=ORIENTED_EDGE('',*,*,#3060,.F.);
#3080=CARTESIAN_POINT('',(-11.300975,3.867389,100.));
#3090=DIRECTION('',(1.,0.,0.));
#3100=VECTOR('',#3090,1.);
#3110=LINE('',#3080,#3100);
#3120=EDGE_CURVE('',#3050,#2060,#3110,.T.);
#3130=ORIENTED_EDGE('',*,*,#3120,.F.);
#3140=EDGE_LOOP('',(#3130,#3070,#2980,#2900,#2820,#2740,#2660,#2580,
#2500,#2420,#2340,#2260,#2180,#2100));
#3150=FACE_OUTER_BOUND('',#3140,.T.);
#3160=ADVANCED_FACE('',(#1990,#3150),#1630,.T.);
#3170=CARTESIAN_POINT('',(-14.800975,3.867389,0.));
#3180=DIRECTION('',(-0.,1.,0.));
#3190=DIRECTION('',(1.,0.,0.));
#3200=AXIS2_PLACEMENT_3D('',#3170,#3180,#3190);
#3210=PLANE('',#3200);
#3220=CARTESIAN_POINT('',(-7.800975,3.86738900000001,0.));
#3230=DIRECTION('',(0.,0.,1.));
#3240=VECTOR('',#3230,1.);
#3250=LINE('',#3220,#3240);
#3260=EDGE_CURVE('',#490,#2060,#3250,.T.);
#3270=ORIENTED_EDGE('',*,*,#3260,.F.);
#3280=ORIENTED_EDGE('',*,*,#3120,.T.);
#3290=CARTESIAN_POINT('',(-14.800975,3.867389,0.));
#3300=DIRECTION('',(0.,0.,1.));
#3310=VECTOR('',#3300,1.);
#3320=LINE('',#3290,#3310);
#3330=EDGE_CURVE('',#470,#3050,#3320,.T.);
#3340=ORIENTED_EDGE('',*,*,#3330,.T.);
#3350=ORIENTED_EDGE('',*,*,#500,.F.);
#3360=EDGE_LOOP('',(#3350,#3340,#3280,#3270));
#3370=FACE_OUTER_BOUND('',#3360,.T.);
#3380=ADVANCED_FACE('',(#3370),#3210,.T.);
#3390=CARTESIAN_POINT('',(-14.800975,-11.132611,0.));
#3400=DIRECTION('',(0.,0.,-1.));
#3410=DIRECTION('',(1.,0.,0.));
#3420=AXIS2_PLACEMENT_3D('',#3390,#3400,#3410);
#3430=CYLINDRICAL_SURFACE('',#3420,15.);
#3440=ORIENTED_EDGE('',*,*,#3330,.F.);
#3450=ORIENTED_EDGE('',*,*,#3060,.T.);
#3460=CARTESIAN_POINT('',(-29.800975,-11.132611,0.));
#3470=DIRECTION('',(0.,0.,1.));
#3480=VECTOR('',#3470,1.);
#3490=LINE('',#3460,#3480);
#3500=EDGE_CURVE('',#580,#2960,#3490,.T.);
#3510=ORIENTED_EDGE('',*,*,#3500,.T.);
#3520=ORIENTED_EDGE('',*,*,#590,.F.);
#3530=EDGE_LOOP('',(#3520,#3510,#3450,#3440));
#3540=FACE_OUTER_BOUND('',#3530,.T.);
#3550=ADVANCED_FACE('',(#3540),#3430,.T.);
#3560=CARTESIAN_POINT('',(-29.800975,-14.132611,0.));
#3570=DIRECTION('',(-1.,0.,0.));
#3580=DIRECTION('',(0.,1.,0.));
#3590=AXIS2_PLACEMENT_3D('',#3560,#3570,#3580);
#3600=PLANE('',#3590);
#3610=ORIENTED_EDGE('',*,*,#3500,.F.);
#3620=ORIENTED_EDGE('',*,*,#2970,.T.);
#3630=CARTESIAN_POINT('',(-29.800975,-14.132611,0.));
#3640=DIRECTION('',(0.,0.,1.));
#3650=VECTOR('',#3640,1.);
#3660=LINE('',#3630,#3650);
#3670=EDGE_CURVE('',#660,#2880,#3660,.T.);
#3680=ORIENTED_EDGE('',*,*,#3670,.T.);
#3690=ORIENTED_EDGE('',*,*,#670,.F.);
#3700=EDGE_LOOP('',(#3690,#3680,#3620,#3610));
#3710=FACE_OUTER_BOUND('',#3700,.T.);
#3720=ADVANCED_FACE('',(#3710),#3600,.T.);
#3730=CARTESIAN_POINT('',(-16.200975,-14.132611,0.));
#3740=DIRECTION('',(-0.,-1.,-0.));
#3750=DIRECTION('',(-1.,0.,0.));
#3760=AXIS2_PLACEMENT_3D('',#3730,#3740,#3750);
#3770=PLANE('',#3760);
#3780=ORIENTED_EDGE('',*,*,#3670,.F.);
#3790=ORIENTED_EDGE('',*,*,#2890,.T.);
#3800=CARTESIAN_POINT('',(-16.200975,-14.132611,0.));
#3810=DIRECTION('',(0.,0.,1.));
#3820=VECTOR('',#3810,1.);
#3830=LINE('',#3800,#3820);
#3840=EDGE_CURVE('',#740,#2800,#3830,.T.);
#3850=ORIENTED_EDGE('',*,*,#3840,.T.);
#3860=ORIENTED_EDGE('',*,*,#750,.F.);
#3870=EDGE_LOOP('',(#3860,#3850,#3790,#3780));
#3880=FACE_OUTER_BOUND('',#3870,.T.);
#3890=ADVANCED_FACE('',(#3880),#3770,.T.);
#3900=CARTESIAN_POINT('',(-16.200975,-16.232611,0.));
#3910=DIRECTION('',(-1.,0.,0.));
#3920=DIRECTION('',(0.,1.,0.));
#3930=AXIS2_PLACEMENT_3D('',#3900,#3910,#3920);
#3940=PLANE('',#3930);
#3950=ORIENTED_EDGE('',*,*,#3840,.F.);
#3960=ORIENTED_EDGE('',*,*,#2810,.F.);
#3970=CARTESIAN_POINT('',(-16.200975,-16.232611,0.));
#3980=DIRECTION('',(0.,0.,1.));
#3990=VECTOR('',#3980,1.);
#4000=LINE('',#3970,#3990);
#4010=EDGE_CURVE('',#820,#2720,#4000,.T.);
#4020=ORIENTED_EDGE('',*,*,#4010,.T.);
#4030=ORIENTED_EDGE('',*,*,#830,.T.);
#4040=EDGE_LOOP('',(#4030,#4020,#3960,#3950));
#4050=FACE_OUTER_BOUND('',#4040,.T.);
#4060=ADVANCED_FACE('',(#4050),#3940,.T.);
#4070=CARTESIAN_POINT('',(-20.800975,-16.232611,0.));
#4080=DIRECTION('',(-0.,1.,0.));
#4090=DIRECTION('',(1.,0.,0.));
#4100=AXIS2_PLACEMENT_3D('',#4070,#4080,#4090);
#4110=PLANE('',#4100);
#4120=ORIENTED_EDGE('',*,*,#4010,.F.);
#4130=ORIENTED_EDGE('',*,*,#2730,.F.);
#4140=CARTESIAN_POINT('',(-20.800975,-16.232611,0.));
#4150=DIRECTION('',(0.,0.,1.));
#4160=VECTOR('',#4150,1.);
#4170=LINE('',#4140,#4160);
#4180=EDGE_CURVE('',#900,#2640,#4170,.T.);
#4190=ORIENTED_EDGE('',*,*,#4180,.T.);
#4200=ORIENTED_EDGE('',*,*,#910,.T.);
#4210=EDGE_LOOP('',(#4200,#4190,#4130,#4120));
#4220=FACE_OUTER_BOUND('',#4210,.T.);
#4230=ADVANCED_FACE('',(#4220),#4110,.T.);
#4240=CARTESIAN_POINT('',(-20.800975,-20.632611,0.));
#4250=DIRECTION('',(-1.,0.,0.));
#4260=DIRECTION('',(0.,1.,0.));
#4270=AXIS2_PLACEMENT_3D('',#4240,#4250,#4260);
#4280=PLANE('',#4270);
#4290=ORIENTED_EDGE('',*,*,#4180,.F.);
#4300=ORIENTED_EDGE('',*,*,#2650,.F.);
#4310=CARTESIAN_POINT('',(-20.800975,-20.632611,0.));
#4320=DIRECTION('',(0.,0.,1.));
#4330=VECTOR('',#4320,1.);
#4340=LINE('',#4310,#4330);
#4350=EDGE_CURVE('',#980,#2560,#4340,.T.);
#4360=ORIENTED_EDGE('',*,*,#4350,.T.);
#4370=ORIENTED_EDGE('',*,*,#990,.T.);
#4380=EDGE_LOOP('',(#4370,#4360,#4300,#4290));
#4390=FACE_OUTER_BOUND('',#4380,.T.);
#4400=ADVANCED_FACE('',(#4390),#4280,.T.);
#4410=CARTESIAN_POINT('',(-1.800975,-20.632611,0.));
#4420=DIRECTION('',(-0.,-1.,-0.));
#4430=DIRECTION('',(-1.,0.,0.));
#4440=AXIS2_PLACEMENT_3D('',#4410,#4420,#4430);
#4450=PLANE('',#4440);
#4460=ORIENTED_EDGE('',*,*,#4350,.F.);
#4470=ORIENTED_EDGE('',*,*,#2570,.F.);
#4480=CARTESIAN_POINT('',(-1.800975,-20.632611,0.));
#4490=DIRECTION('',(0.,0.,1.));
#4500=VECTOR('',#4490,1.);
#4510=LINE('',#4480,#4500);
#4520=EDGE_CURVE('',#1060,#2480,#4510,.T.);
#4530=ORIENTED_EDGE('',*,*,#4520,.T.);
#4540=ORIENTED_EDGE('',*,*,#1070,.T.);
#4550=EDGE_LOOP('',(#4540,#4530,#4470,#4460));
#4560=FACE_OUTER_BOUND('',#4550,.T.);
#4570=ADVANCED_FACE('',(#4560),#4450,.T.);
#4580=CARTESIAN_POINT('',(-1.800975,-16.232611,0.));
#4590=DIRECTION('',(1.,0.,0.));
#4600=DIRECTION('',(0.,-1.,0.));
#4610=AXIS2_PLACEMENT_3D('',#4580,#4590,#4600);
#4620=PLANE('',#4610);
#4630=ORIENTED_EDGE('',*,*,#4520,.F.);
#4640=ORIENTED_EDGE('',*,*,#2490,.F.);
#4650=CARTESIAN_POINT('',(-1.800975,-16.232611,0.));
#4660=DIRECTION('',(0.,0.,1.));
#4670=VECTOR('',#4660,1.);
#4680=LINE('',#4650,#4670);
#4690=EDGE_CURVE('',#1140,#2400,#4680,.T.);
#4700=ORIENTED_EDGE('',*,*,#4690,.T.);
#4710=ORIENTED_EDGE('',*,*,#1150,.T.);
#4720=EDGE_LOOP('',(#4710,#4700,#4640,#4630));
#4730=FACE_OUTER_BOUND('',#4720,.T.);
#4740=ADVANCED_FACE('',(#4730),#4620,.T.);
#4750=CARTESIAN_POINT('',(-6.400975,-16.232611,0.));
#4760=DIRECTION('',(-0.,1.,0.));
#4770=DIRECTION('',(1.,0.,0.));
#4780=AXIS2_PLACEMENT_3D('',#4750,#4760,#4770);
#4790=PLANE('',#4780);
#4800=ORIENTED_EDGE('',*,*,#4690,.F.);
#4810=ORIENTED_EDGE('',*,*,#2410,.F.);
#4820=CARTESIAN_POINT('',(-6.400975,-16.232611,0.));
#4830=DIRECTION('',(0.,0.,1.));
#4840=VECTOR('',#4830,1.);
#4850=LINE('',#4820,#4840);
#4860=EDGE_CURVE('',#1220,#2320,#4850,.T.);
#4870=ORIENTED_EDGE('',*,*,#4860,.T.);
#4880=ORIENTED_EDGE('',*,*,#1230,.T.);
#4890=EDGE_LOOP('',(#4880,#4870,#4810,#4800));
#4900=FACE_OUTER_BOUND('',#4890,.T.);
#4910=ADVANCED_FACE('',(#4900),#4790,.T.);
#4920=CARTESIAN_POINT('',(-6.400975,-14.132611,0.));
#4930=DIRECTION('',(1.,0.,0.));
#4940=DIRECTION('',(0.,-1.,0.));
#4950=AXIS2_PLACEMENT_3D('',#4920,#4930,#4940);
#4960=PLANE('',#4950);
#4970=ORIENTED_EDGE('',*,*,#4860,.F.);
#4980=ORIENTED_EDGE('',*,*,#2330,.F.);
#4990=CARTESIAN_POINT('',(-6.400975,-14.132611,0.));
#5000=DIRECTION('',(0.,0.,1.));
#5010=VECTOR('',#5000,1.);
#5020=LINE('',#4990,#5010);
#5030=EDGE_CURVE('',#1300,#2240,#5020,.T.);
#5040=ORIENTED_EDGE('',*,*,#5030,.T.);
#5050=ORIENTED_EDGE('',*,*,#1310,.T.);
#5060=EDGE_LOOP('',(#5050,#5040,#4980,#4970));
#5070=FACE_OUTER_BOUND('',#5060,.T.);
#5080=ADVANCED_FACE('',(#5070),#4960,.T.);
#5090=CARTESIAN_POINT('',(7.199025,-14.132611,0.));
#5100=DIRECTION('',(-0.,-1.,-0.));
#5110=DIRECTION('',(-1.,0.,0.));
#5120=AXIS2_PLACEMENT_3D('',#5090,#5100,#5110);
#5130=PLANE('',#5120);
#5140=ORIENTED_EDGE('',*,*,#5030,.F.);
#5150=ORIENTED_EDGE('',*,*,#2250,.T.);
#5160=CARTESIAN_POINT('',(7.199025,-14.132611,0.));
#5170=DIRECTION('',(0.,0.,1.));
#5180=VECTOR('',#5170,1.);
#5190=LINE('',#5160,#5180);
#5200=EDGE_CURVE('',#1380,#2160,#5190,.T.);
#5210=ORIENTED_EDGE('',*,*,#5200,.T.);
#5220=ORIENTED_EDGE('',*,*,#1390,.F.);
#5230=EDGE_LOOP('',(#5220,#5210,#5150,#5140));
#5240=FACE_OUTER_BOUND('',#5230,.T.);
#5250=ADVANCED_FACE('',(#5240),#5130,.T.);
#5260=CARTESIAN_POINT('',(7.199025,-9.132611,0.));
#5270=DIRECTION('',(1.,0.,0.));
#5280=DIRECTION('',(0.,-1.,0.));
#5290=AXIS2_PLACEMENT_3D('',#5260,#5270,#5280);
#5300=PLANE('',#5290);
#5310=ORIENTED_EDGE('',*,*,#5200,.F.);
#5320=ORIENTED_EDGE('',*,*,#2170,.T.);
#5330=CARTESIAN_POINT('',(7.199025,-11.132611,0.));
#5340=DIRECTION('',(0.,0.,1.));
#5350=VECTOR('',#5340,1.);
#5360=LINE('',#5330,#5350);
#5370=EDGE_CURVE('',#1460,#2080,#5360,.T.);
#5380=ORIENTED_EDGE('',*,*,#5370,.T.);
#5390=ORIENTED_EDGE('',*,*,#1470,.F.);
#5400=EDGE_LOOP('',(#5390,#5380,#5320,#5310));
#5410=FACE_OUTER_BOUND('',#5400,.T.);
#5420=ADVANCED_FACE('',(#5410),#5300,.T.);
#5430=CARTESIAN_POINT('',(-7.80097499999999,-11.132611,0.));
#5440=DIRECTION('',(0.,0.,-1.));
#5450=DIRECTION('',(1.,0.,0.));
#5460=AXIS2_PLACEMENT_3D('',#5430,#5440,#5450);
#5470=CYLINDRICAL_SURFACE('',#5460,15.);
#5480=ORIENTED_EDGE('',*,*,#5370,.F.);
#5490=ORIENTED_EDGE('',*,*,#2090,.T.);
#5500=ORIENTED_EDGE('',*,*,#3260,.T.);
#5510=ORIENTED_EDGE('',*,*,#1540,.F.);
#5520=EDGE_LOOP('',(#5510,#5500,#5490,#5480));
#5530=FACE_OUTER_BOUND('',#5520,.T.);
#5540=ADVANCED_FACE('',(#5530),#5470,.T.);
#5550=CARTESIAN_POINT('',(-7.80097499999999,-11.132611,0.));
#5560=DIRECTION('',(0.,0.,-1.));
#5570=DIRECTION('',(1.,0.,0.));
#5580=AXIS2_PLACEMENT_3D('',#5550,#5560,#5570);
#5590=CYLINDRICAL_SURFACE('',#5580,12.);
#5600=CARTESIAN_POINT('',(-7.80097499999998,0.867388999999999,0.));
#5610=DIRECTION('',(0.,0.,1.));
#5620=VECTOR('',#5610,1.);
#5630=LINE('',#5600,#5620);
#5640=EDGE_CURVE('',#120,#1710,#5630,.T.);
#5650=ORIENTED_EDGE('',*,*,#5640,.F.);
#5660=ORIENTED_EDGE('',*,*,#1960,.F.);
#5670=CARTESIAN_POINT('',(4.19902500000001,-11.132611,0.));
#5680=DIRECTION('',(0.,0.,1.));
#5690=VECTOR('',#5680,1.);
#5700=LINE('',#5670,#5690);
#5710=EDGE_CURVE('',#140,#1880,#5700,.T.);
#5720=ORIENTED_EDGE('',*,*,#5710,.T.);
#5730=ORIENTED_EDGE('',*,*,#150,.T.);
#5740=EDGE_LOOP('',(#5730,#5720,#5660,#5650));
#5750=FACE_OUTER_BOUND('',#5740,.T.);
#5760=ADVANCED_FACE('',(#5750),#5590,.F.);
#5770=CARTESIAN_POINT('',(-7.80097499999998,0.867388999999999,0.));
#5780=DIRECTION('',(-0.,-1.,-0.));
#5790=DIRECTION('',(-1.,0.,0.));
#5800=AXIS2_PLACEMENT_3D('',#5770,#5780,#5790);
#5810=PLANE('',#5800);
#5820=CARTESIAN_POINT('',(-14.800975,0.867388999999999,0.));
#5830=DIRECTION('',(0.,0.,1.));
#5840=VECTOR('',#5830,1.);
#5850=LINE('',#5820,#5840);
#5860=EDGE_CURVE('',#310,#1690,#5850,.T.);
#5870=ORIENTED_EDGE('',*,*,#5860,.F.);
#5880=ORIENTED_EDGE('',*,*,#1720,.F.);
#5890=ORIENTED_EDGE('',*,*,#5640,.T.);
#5900=ORIENTED_EDGE('',*,*,#380,.T.);
#5910=EDGE_LOOP('',(#5900,#5890,#5880,#5870));
#5920=FACE_OUTER_BOUND('',#5910,.T.);
#5930=ADVANCED_FACE('',(#5920),#5810,.T.);
#5940=CARTESIAN_POINT('',(-26.800975,-11.132611,0.));
#5950=DIRECTION('',(-0.,1.,0.));
#5960=DIRECTION('',(1.,0.,0.));
#5970=AXIS2_PLACEMENT_3D('',#5940,#5950,#5960);
#5980=PLANE('',#5970);
#5990=ORIENTED_EDGE('',*,*,#5710,.F.);
#6000=ORIENTED_EDGE('',*,*,#1890,.F.);
#6010=CARTESIAN_POINT('',(-26.800975,-11.132611,0.));
#6020=DIRECTION('',(0.,0.,1.));
#6030=VECTOR('',#6020,1.);
#6040=LINE('',#6010,#6030);
#6050=EDGE_CURVE('',#220,#1800,#6040,.T.);
#6060=ORIENTED_EDGE('',*,*,#6050,.T.);
#6070=ORIENTED_EDGE('',*,*,#230,.T.);
#6080=EDGE_LOOP('',(#6070,#6060,#6000,#5990));
#6090=FACE_OUTER_BOUND('',#6080,.T.);
#6100=ADVANCED_FACE('',(#6090),#5980,.T.);
#6110=CARTESIAN_POINT('',(-14.800975,-11.132611,0.));
#6120=DIRECTION('',(0.,0.,-1.));
#6130=DIRECTION('',(1.,0.,0.));
#6140=AXIS2_PLACEMENT_3D('',#6110,#6120,#6130);
#6150=CYLINDRICAL_SURFACE('',#6140,12.);
#6160=ORIENTED_EDGE('',*,*,#6050,.F.);
#6170=ORIENTED_EDGE('',*,*,#1810,.F.);
#6180=ORIENTED_EDGE('',*,*,#5860,.T.);
#6190=ORIENTED_EDGE('',*,*,#320,.T.);
#6200=EDGE_LOOP('',(#6190,#6180,#6170,#6160));
#6210=FACE_OUTER_BOUND('',#6200,.T.);
#6220=ADVANCED_FACE('',(#6210),#6150,.F.);
#6230=CLOSED_SHELL('',(#3380,#3550,#3720,#3890,#4060,#4230,#4400,#4570,
#4740,#4910,#5080,#5250,#5420,#5540,#5760,#5930,#6100,#6220,#3160,#1580)
);
#6240=MANIFOLD_SOLID_BREP('',#6230);
#6250=CARTESIAN_POINT('',(0.,0.,0.));
#6260=DIRECTION('',(0.,0.,1.));
#6270=DIRECTION('',(1.,0.,0.));
#6280=AXIS2_PLACEMENT_3D('',#6250,#6260,#6270);
#6290=APPLICATION_CONTEXT(' ');
#6300=APPLICATION_PROTOCOL_DEFINITION(' ','automotive_design',1998,#6290
);
#6310=PRODUCT_CONTEXT('',#6290,'mechanical');
#6320=PRODUCT_DEFINITION_CONTEXT('part definition',#6290,'design');
#6330=PRODUCT(
'Profilabdeckung-Halbrund-MMS-44_R15-hohl-37x18-schwarz-leitf\S\dhig_44.
0301.10_PX174825',
'Profilabdeckung-Halbrund-MMS-44_R15-hohl-37x18-schwarz-leitf\S\dhig_44.
0301.10_PX174825','',(#6310));
#6340=PRODUCT_RELATED_PRODUCT_CATEGORY('part',' ',(#6330));
#6350=PRODUCT_DEFINITION_FORMATION_WITH_SPECIFIED_SOURCE('','',#6330,
.BOUGHT.);
#6360=PRODUCT_DEFINITION('',' ',#6350,#6320);
#6370=PRODUCT_DEFINITION_SHAPE('','',#6360);
#6380=DIMENSIONAL_EXPONENTS(1.,0.,0.,0.,0.,0.,0.);
#6390=DIMENSIONAL_EXPONENTS(0.,0.,0.,0.,0.,0.,0.);
#6400=DIMENSIONAL_EXPONENTS(0.,0.,0.,0.,0.,0.,0.);
#6410=(LENGTH_UNIT() NAMED_UNIT(*) SI_UNIT(.MILLI.,.METRE.));
#6420=(NAMED_UNIT(*) PLANE_ANGLE_UNIT() SI_UNIT($,.RADIAN.));
#6430=(NAMED_UNIT(*) SI_UNIT($,.STERADIAN.) SOLID_ANGLE_UNIT());
#6440=(GEOMETRIC_REPRESENTATION_CONTEXT(3) 
GLOBAL_UNCERTAINTY_ASSIGNED_CONTEXT((#6450)) 
GLOBAL_UNIT_ASSIGNED_CONTEXT((#6410,#6420,#6430)) REPRESENTATION_CONTEXT
('',''));
#6450=UNCERTAINTY_MEASURE_WITH_UNIT(LENGTH_MEASURE(1.E-6),#6410,
'distance_accuracy_value','maximum gap value');
#6460=ADVANCED_BREP_SHAPE_REPRESENTATION('',(#6280,#6240),#6440);
#6470=SHAPE_DEFINITION_REPRESENTATION(#6370,#6460);
#6480=COLOUR_RGB('',0.0823529437184334,0.0862745121121407,
0.0980392247438431);
#6490=FILL_AREA_STYLE_COLOUR('',#6480);
#6500=FILL_AREA_STYLE('',(#6490));
#6510=SURFACE_STYLE_FILL_AREA(#6500);
#6520=SURFACE_SIDE_STYLE('',(#6510));
#6530=SURFACE_STYLE_USAGE(.BOTH.,#6520);
#6540=PRESENTATION_STYLE_ASSIGNMENT((#6530));
#6550=STYLED_ITEM('',(#6540),#6240);
#6560=DRAUGHTING_MODEL('',(#6550),#6440);
ENDSEC;
END-ISO-10303-21;
