ISO-10303-21;
HEADER;
FILE_DESCRIPTION(('Creo Elements/Direct Modeling STEP Export'),'2;1');
FILE_NAME(
'//KR-CAD2/PhoenixTemp/karl.letzgus/Konvertierung/44.0301.3_Profilabdeck
ung-Flach-MMS-44_37x3-grau.stp','2022-03-21T 9:01:18',(''),(''),
'PTC Creo Elements/Direct Modeling STEP processor for AP214 (Solid Model
)',
'PTC Creo Elements/Direct Modeling 19.0C  15-Aug-2015 (C) Parametric Tec
hnology GmbH','');
FILE_SCHEMA(('AUTOMOTIVE_DESIGN { 1 0 10303 214 1 1 1 1 }'));
ENDSEC;
DATA;
#10=CARTESIAN_POINT('',(0.,0.,0.));
#20=DIRECTION('',(0.,0.,1.));
#30=DIRECTION('',(1.,0.,0.));
#40=AXIS2_PLACEMENT_3D('',#10,#20,#30);
#50=PLANE('',#40);
#60=CARTESIAN_POINT('',(-16.974431,0.345719999999985,0.));
#70=DIRECTION('',(0.,0.,1.));
#80=DIRECTION('',(1.,0.,0.));
#90=AXIS2_PLACEMENT_3D('',#60,#70,#80);
#100=CIRCLE('',#90,1.5);
#110=CARTESIAN_POINT('',(-16.974431,1.84571999999999,0.));
#120=VERTEX_POINT('',#110);
#130=CARTESIAN_POINT('',(-18.474431,0.345719999999988,0.));
#140=VERTEX_POINT('',#130);
#150=EDGE_CURVE('',#120,#140,#100,.T.);
#160=ORIENTED_EDGE('',*,*,#150,.F.);
#170=CARTESIAN_POINT('',(-18.474431,-1.15428,0.));
#180=DIRECTION('',(-3.5527136788005E-15,1.,0.));
#190=VECTOR('',#180,1.);
#200=LINE('',#170,#190);
#210=CARTESIAN_POINT('',(-18.474431,-1.15428000000013,0.));
#220=VERTEX_POINT('',#210);
#230=EDGE_CURVE('',#220,#140,#200,.T.);
#240=ORIENTED_EDGE('',*,*,#230,.T.);
#250=CARTESIAN_POINT('',(0.0255690000000008,-1.15428,0.));
#260=DIRECTION('',(1.,0.,0.));
#270=VECTOR('',#260,1.);
#280=LINE('',#250,#270);
#290=CARTESIAN_POINT('',(-4.974431007,-1.15428000000013,0.));
#300=VERTEX_POINT('',#290);
#310=EDGE_CURVE('',#220,#300,#280,.T.);
#320=ORIENTED_EDGE('',*,*,#310,.F.);
#330=CARTESIAN_POINT('',(-4.974431007,-1.15428,0.));
#340=DIRECTION('',(0.,1.,0.));
#350=VECTOR('',#340,1.);
#360=LINE('',#330,#350);
#370=CARTESIAN_POINT('',(-4.974431007,-3.15428000000008,0.));
#380=VERTEX_POINT('',#370);
#390=EDGE_CURVE('',#380,#300,#360,.T.);
#400=ORIENTED_EDGE('',*,*,#390,.T.);
#410=CARTESIAN_POINT('',(0.0255690000000008,-3.15428000000008,0.));
#420=DIRECTION('',(1.,0.,0.));
#430=VECTOR('',#420,1.);
#440=LINE('',#410,#430);
#450=CARTESIAN_POINT('',(-5.724431007,-3.15428000000009,0.));
#460=VERTEX_POINT('',#450);
#470=EDGE_CURVE('',#460,#380,#440,.T.);
#480=ORIENTED_EDGE('',*,*,#470,.T.);
#490=CARTESIAN_POINT('',(-6.87913154550007,-1.15428,0.));
#500=DIRECTION('',(-0.50000000003922,0.866025403761795,0.));
#510=VECTOR('',#500,1.);
#520=LINE('',#490,#510);
#530=CARTESIAN_POINT('',(-3.41502993000001,-7.15428000000001,0.));
#540=VERTEX_POINT('',#530);
#550=EDGE_CURVE('',#540,#460,#520,.T.);
#560=ORIENTED_EDGE('',*,*,#550,.T.);
#570=CARTESIAN_POINT('',(0.0255690000000008,-7.15428000000003,0.));
#580=DIRECTION('',(-1.,0.,0.));
#590=VECTOR('',#580,1.);
#600=LINE('',#570,#590);
#610=CARTESIAN_POINT('',(-2.974431,-7.15428,0.));
#620=VERTEX_POINT('',#610);
#630=EDGE_CURVE('',#620,#540,#600,.T.);
#640=ORIENTED_EDGE('',*,*,#630,.T.);
#650=CARTESIAN_POINT('',(-2.974431,-1.15428,0.));
#660=DIRECTION('',(0.,1.,0.));
#670=VECTOR('',#660,1.);
#680=LINE('',#650,#670);
#690=CARTESIAN_POINT('',(-2.974431,-1.15428,0.));
#700=VERTEX_POINT('',#690);
#710=EDGE_CURVE('',#620,#700,#680,.T.);
#720=ORIENTED_EDGE('',*,*,#710,.F.);
#730=CARTESIAN_POINT('',(0.0255690000000008,-1.15428,0.));
#740=DIRECTION('',(1.,0.,0.));
#750=VECTOR('',#740,1.);
#760=LINE('',#730,#750);
#770=CARTESIAN_POINT('',(3.025569,-1.15428,0.));
#780=VERTEX_POINT('',#770);
#790=EDGE_CURVE('',#700,#780,#760,.T.);
#800=ORIENTED_EDGE('',*,*,#790,.F.);
#810=CARTESIAN_POINT('',(3.025569,-1.15428,0.));
#820=DIRECTION('',(0.,-1.,0.));
#830=VECTOR('',#820,1.);
#840=LINE('',#810,#830);
#850=CARTESIAN_POINT('',(3.025569,-7.15428000000003,0.));
#860=VERTEX_POINT('',#850);
#870=EDGE_CURVE('',#780,#860,#840,.T.);
#880=ORIENTED_EDGE('',*,*,#870,.F.);
#890=CARTESIAN_POINT('',(0.0255690000000008,-7.15428000000003,0.));
#900=DIRECTION('',(-1.,0.,0.));
#910=VECTOR('',#900,1.);
#920=LINE('',#890,#910);
#930=CARTESIAN_POINT('',(3.46616792,-7.15428000000003,0.));
#940=VERTEX_POINT('',#930);
#950=EDGE_CURVE('',#940,#860,#920,.T.);
#960=ORIENTED_EDGE('',*,*,#950,.T.);
#970=CARTESIAN_POINT('',(6.93026954000002,-1.15428,0.));
#980=DIRECTION('',(-0.500000000526354,-0.866025403480548,0.));
#990=VECTOR('',#980,1.);
#1000=LINE('',#970,#990);
#1010=CARTESIAN_POINT('',(5.775569,-3.15428000000003,0.));
#1020=VERTEX_POINT('',#1010);
#1030=EDGE_CURVE('',#1020,#940,#1000,.T.);
#1040=ORIENTED_EDGE('',*,*,#1030,.T.);
#1050=CARTESIAN_POINT('',(0.0255690000000008,-3.15428000000003,0.));
#1060=DIRECTION('',(1.,0.,0.));
#1070=VECTOR('',#1060,1.);
#1080=LINE('',#1050,#1070);
#1090=CARTESIAN_POINT('',(5.025569,-3.15428000000003,0.));
#1100=VERTEX_POINT('',#1090);
#1110=EDGE_CURVE('',#1100,#1020,#1080,.T.);
#1120=ORIENTED_EDGE('',*,*,#1110,.T.);
#1130=CARTESIAN_POINT('',(5.025569,-1.15428,0.));
#1140=DIRECTION('',(0.,-1.,0.));
#1150=VECTOR('',#1140,1.);
#1160=LINE('',#1130,#1150);
#1170=CARTESIAN_POINT('',(5.025569,-1.15428,0.));
#1180=VERTEX_POINT('',#1170);
#1190=EDGE_CURVE('',#1180,#1100,#1160,.T.);
#1200=ORIENTED_EDGE('',*,*,#1190,.T.);
#1210=CARTESIAN_POINT('',(0.0255690000000008,-1.15428,0.));
#1220=DIRECTION('',(1.,0.,0.));
#1230=VECTOR('',#1220,1.);
#1240=LINE('',#1210,#1230);
#1250=CARTESIAN_POINT('',(18.525569,-1.15428,0.));
#1260=VERTEX_POINT('',#1250);
#1270=EDGE_CURVE('',#1180,#1260,#1240,.T.);
#1280=ORIENTED_EDGE('',*,*,#1270,.F.);
#1290=CARTESIAN_POINT('',(18.525569,1.84571999999964,0.));
#1300=DIRECTION('',(0.,-1.,0.));
#1310=VECTOR('',#1300,1.);
#1320=LINE('',#1290,#1310);
#1330=CARTESIAN_POINT('',(18.525569,0.345719999999656,0.));
#1340=VERTEX_POINT('',#1330);
#1350=EDGE_CURVE('',#1340,#1260,#1320,.T.);
#1360=ORIENTED_EDGE('',*,*,#1350,.T.);
#1370=CARTESIAN_POINT('',(17.025569,0.345719999999656,0.));
#1380=DIRECTION('',(0.,0.,1.));
#1390=DIRECTION('',(1.,0.,0.));
#1400=AXIS2_PLACEMENT_3D('',#1370,#1380,#1390);
#1410=CIRCLE('',#1400,1.5);
#1420=CARTESIAN_POINT('',(17.025569,1.84571999999966,0.));
#1430=VERTEX_POINT('',#1420);
#1440=EDGE_CURVE('',#1340,#1430,#1410,.T.);
#1450=ORIENTED_EDGE('',*,*,#1440,.F.);
#1460=CARTESIAN_POINT('',(-18.474431,1.84572,0.));
#1470=DIRECTION('',(1.,-9.69794815023921E-15,0.));
#1480=VECTOR('',#1470,1.);
#1490=LINE('',#1460,#1480);
#1500=EDGE_CURVE('',#120,#1430,#1490,.T.);
#1510=ORIENTED_EDGE('',*,*,#1500,.T.);
#1520=EDGE_LOOP('',(#1510,#1450,#1360,#1280,#1200,#1120,#1040,#960,#880,
#800,#720,#640,#560,#480,#400,#320,#240,#160));
#1530=FACE_OUTER_BOUND('',#1520,.T.);
#1540=ADVANCED_FACE('',(#1530),#50,.F.);
#1550=CARTESIAN_POINT('',(0.,0.,100.));
#1560=DIRECTION('',(0.,0.,1.));
#1570=DIRECTION('',(1.,0.,0.));
#1580=AXIS2_PLACEMENT_3D('',#1550,#1560,#1570);
#1590=PLANE('',#1580);
#1600=CARTESIAN_POINT('',(-18.474431,1.84572,100.));
#1610=DIRECTION('',(1.,-9.69794815023921E-15,0.));
#1620=VECTOR('',#1610,1.);
#1630=LINE('',#1600,#1620);
#1640=CARTESIAN_POINT('',(-16.974431,1.84571999999999,100.));
#1650=VERTEX_POINT('',#1640);
#1660=CARTESIAN_POINT('',(17.025569,1.84571999999966,100.));
#1670=VERTEX_POINT('',#1660);
#1680=EDGE_CURVE('',#1650,#1670,#1630,.T.);
#1690=ORIENTED_EDGE('',*,*,#1680,.F.);
#1700=CARTESIAN_POINT('',(17.025569,0.345719999999656,100.));
#1710=DIRECTION('',(0.,0.,1.));
#1720=DIRECTION('',(1.,0.,0.));
#1730=AXIS2_PLACEMENT_3D('',#1700,#1710,#1720);
#1740=CIRCLE('',#1730,1.5);
#1750=CARTESIAN_POINT('',(18.525569,0.345719999999656,100.));
#1760=VERTEX_POINT('',#1750);
#1770=EDGE_CURVE('',#1760,#1670,#1740,.T.);
#1780=ORIENTED_EDGE('',*,*,#1770,.T.);
#1790=CARTESIAN_POINT('',(18.525569,1.84571999999964,100.));
#1800=DIRECTION('',(0.,-1.,0.));
#1810=VECTOR('',#1800,1.);
#1820=LINE('',#1790,#1810);
#1830=CARTESIAN_POINT('',(18.525569,-1.15428,100.));
#1840=VERTEX_POINT('',#1830);
#1850=EDGE_CURVE('',#1760,#1840,#1820,.T.);
#1860=ORIENTED_EDGE('',*,*,#1850,.F.);
#1870=CARTESIAN_POINT('',(0.0255690000000008,-1.15428,100.));
#1880=DIRECTION('',(1.,0.,0.));
#1890=VECTOR('',#1880,1.);
#1900=LINE('',#1870,#1890);
#1910=CARTESIAN_POINT('',(5.025569,-1.15428,100.));
#1920=VERTEX_POINT('',#1910);
#1930=EDGE_CURVE('',#1920,#1840,#1900,.T.);
#1940=ORIENTED_EDGE('',*,*,#1930,.T.);
#1950=CARTESIAN_POINT('',(5.025569,-1.15428,100.));
#1960=DIRECTION('',(0.,-1.,0.));
#1970=VECTOR('',#1960,1.);
#1980=LINE('',#1950,#1970);
#1990=CARTESIAN_POINT('',(5.025569,-3.15428000000003,100.));
#2000=VERTEX_POINT('',#1990);
#2010=EDGE_CURVE('',#1920,#2000,#1980,.T.);
#2020=ORIENTED_EDGE('',*,*,#2010,.F.);
#2030=CARTESIAN_POINT('',(0.0255690000000008,-3.15428000000003,100.));
#2040=DIRECTION('',(1.,0.,0.));
#2050=VECTOR('',#2040,1.);
#2060=LINE('',#2030,#2050);
#2070=CARTESIAN_POINT('',(5.775569,-3.15428000000003,100.));
#2080=VERTEX_POINT('',#2070);
#2090=EDGE_CURVE('',#2000,#2080,#2060,.T.);
#2100=ORIENTED_EDGE('',*,*,#2090,.F.);
#2110=CARTESIAN_POINT('',(6.93026954000002,-1.15428,100.));
#2120=DIRECTION('',(-0.500000000526354,-0.866025403480548,0.));
#2130=VECTOR('',#2120,1.);
#2140=LINE('',#2110,#2130);
#2150=CARTESIAN_POINT('',(3.46616792,-7.15428000000003,100.));
#2160=VERTEX_POINT('',#2150);
#2170=EDGE_CURVE('',#2080,#2160,#2140,.T.);
#2180=ORIENTED_EDGE('',*,*,#2170,.F.);
#2190=CARTESIAN_POINT('',(0.0255690000000008,-7.15428000000003,100.));
#2200=DIRECTION('',(-1.,0.,0.));
#2210=VECTOR('',#2200,1.);
#2220=LINE('',#2190,#2210);
#2230=CARTESIAN_POINT('',(3.025569,-7.15428000000003,100.));
#2240=VERTEX_POINT('',#2230);
#2250=EDGE_CURVE('',#2160,#2240,#2220,.T.);
#2260=ORIENTED_EDGE('',*,*,#2250,.F.);
#2270=CARTESIAN_POINT('',(3.025569,-1.15428,100.));
#2280=DIRECTION('',(0.,-1.,0.));
#2290=VECTOR('',#2280,1.);
#2300=LINE('',#2270,#2290);
#2310=CARTESIAN_POINT('',(3.025569,-1.15428,100.));
#2320=VERTEX_POINT('',#2310);
#2330=EDGE_CURVE('',#2320,#2240,#2300,.T.);
#2340=ORIENTED_EDGE('',*,*,#2330,.T.);
#2350=CARTESIAN_POINT('',(0.0255690000000008,-1.15428,100.));
#2360=DIRECTION('',(1.,0.,0.));
#2370=VECTOR('',#2360,1.);
#2380=LINE('',#2350,#2370);
#2390=CARTESIAN_POINT('',(-2.974431,-1.15428,100.));
#2400=VERTEX_POINT('',#2390);
#2410=EDGE_CURVE('',#2400,#2320,#2380,.T.);
#2420=ORIENTED_EDGE('',*,*,#2410,.T.);
#2430=CARTESIAN_POINT('',(-2.974431,-1.15428,100.));
#2440=DIRECTION('',(0.,1.,0.));
#2450=VECTOR('',#2440,1.);
#2460=LINE('',#2430,#2450);
#2470=CARTESIAN_POINT('',(-2.974431,-7.15428,100.));
#2480=VERTEX_POINT('',#2470);
#2490=EDGE_CURVE('',#2480,#2400,#2460,.T.);
#2500=ORIENTED_EDGE('',*,*,#2490,.T.);
#2510=CARTESIAN_POINT('',(0.0255690000000008,-7.15428000000003,100.));
#2520=DIRECTION('',(-1.,0.,0.));
#2530=VECTOR('',#2520,1.);
#2540=LINE('',#2510,#2530);
#2550=CARTESIAN_POINT('',(-3.41502993000001,-7.15428000000001,100.));
#2560=VERTEX_POINT('',#2550);
#2570=EDGE_CURVE('',#2480,#2560,#2540,.T.);
#2580=ORIENTED_EDGE('',*,*,#2570,.F.);
#2590=CARTESIAN_POINT('',(-6.87913154550007,-1.15428,100.));
#2600=DIRECTION('',(-0.50000000003922,0.866025403761795,0.));
#2610=VECTOR('',#2600,1.);
#2620=LINE('',#2590,#2610);
#2630=CARTESIAN_POINT('',(-5.724431007,-3.15428000000009,100.));
#2640=VERTEX_POINT('',#2630);
#2650=EDGE_CURVE('',#2560,#2640,#2620,.T.);
#2660=ORIENTED_EDGE('',*,*,#2650,.F.);
#2670=CARTESIAN_POINT('',(0.0255690000000008,-3.15428000000008,100.));
#2680=DIRECTION('',(1.,0.,0.));
#2690=VECTOR('',#2680,1.);
#2700=LINE('',#2670,#2690);
#2710=CARTESIAN_POINT('',(-4.974431007,-3.15428000000008,100.));
#2720=VERTEX_POINT('',#2710);
#2730=EDGE_CURVE('',#2640,#2720,#2700,.T.);
#2740=ORIENTED_EDGE('',*,*,#2730,.F.);
#2750=CARTESIAN_POINT('',(-4.974431007,-1.15428,100.));
#2760=DIRECTION('',(0.,1.,0.));
#2770=VECTOR('',#2760,1.);
#2780=LINE('',#2750,#2770);
#2790=CARTESIAN_POINT('',(-4.974431007,-1.15428000000013,100.));
#2800=VERTEX_POINT('',#2790);
#2810=EDGE_CURVE('',#2720,#2800,#2780,.T.);
#2820=ORIENTED_EDGE('',*,*,#2810,.F.);
#2830=CARTESIAN_POINT('',(0.0255690000000008,-1.15428,100.));
#2840=DIRECTION('',(1.,0.,0.));
#2850=VECTOR('',#2840,1.);
#2860=LINE('',#2830,#2850);
#2870=CARTESIAN_POINT('',(-18.474431,-1.15428000000013,100.));
#2880=VERTEX_POINT('',#2870);
#2890=EDGE_CURVE('',#2880,#2800,#2860,.T.);
#2900=ORIENTED_EDGE('',*,*,#2890,.T.);
#2910=CARTESIAN_POINT('',(-18.474431,-1.15428,100.));
#2920=DIRECTION('',(-3.5527136788005E-15,1.,0.));
#2930=VECTOR('',#2920,1.);
#2940=LINE('',#2910,#2930);
#2950=CARTESIAN_POINT('',(-18.474431,0.345719999999988,100.));
#2960=VERTEX_POINT('',#2950);
#2970=EDGE_CURVE('',#2880,#2960,#2940,.T.);
#2980=ORIENTED_EDGE('',*,*,#2970,.F.);
#2990=CARTESIAN_POINT('',(-16.974431,0.345719999999985,100.));
#3000=DIRECTION('',(0.,0.,1.));
#3010=DIRECTION('',(1.,0.,0.));
#3020=AXIS2_PLACEMENT_3D('',#2990,#3000,#3010);
#3030=CIRCLE('',#3020,1.5);
#3040=EDGE_CURVE('',#1650,#2960,#3030,.T.);
#3050=ORIENTED_EDGE('',*,*,#3040,.T.);
#3060=EDGE_LOOP('',(#3050,#2980,#2900,#2820,#2740,#2660,#2580,#2500,
#2420,#2340,#2260,#2180,#2100,#2020,#1940,#1860,#1780,#1690));
#3070=FACE_OUTER_BOUND('',#3060,.T.);
#3080=ADVANCED_FACE('',(#3070),#1590,.T.);
#3090=CARTESIAN_POINT('',(-16.974431,0.345719999999985,0.));
#3100=DIRECTION('',(0.,0.,1.));
#3110=DIRECTION('',(1.,0.,0.));
#3120=AXIS2_PLACEMENT_3D('',#3090,#3100,#3110);
#3130=CYLINDRICAL_SURFACE('',#3120,1.5);
#3140=CARTESIAN_POINT('',(-16.974431,1.84571999999999,0.));
#3150=DIRECTION('',(0.,0.,1.));
#3160=VECTOR('',#3150,1.);
#3170=LINE('',#3140,#3160);
#3180=EDGE_CURVE('',#120,#1650,#3170,.T.);
#3190=ORIENTED_EDGE('',*,*,#3180,.F.);
#3200=ORIENTED_EDGE('',*,*,#3040,.F.);
#3210=CARTESIAN_POINT('',(-18.474431,0.345719999999988,0.));
#3220=DIRECTION('',(0.,0.,1.));
#3230=VECTOR('',#3220,1.);
#3240=LINE('',#3210,#3230);
#3250=EDGE_CURVE('',#140,#2960,#3240,.T.);
#3260=ORIENTED_EDGE('',*,*,#3250,.T.);
#3270=ORIENTED_EDGE('',*,*,#150,.T.);
#3280=EDGE_LOOP('',(#3270,#3260,#3200,#3190));
#3290=FACE_OUTER_BOUND('',#3280,.T.);
#3300=ADVANCED_FACE('',(#3290),#3130,.T.);
#3310=CARTESIAN_POINT('',(-18.474431,-0.15428,0.));
#3320=DIRECTION('',(-1.,1.77635683940025E-15,0.));
#3330=DIRECTION('',(1.77635683940025E-15,1.,0.));
#3340=AXIS2_PLACEMENT_3D('',#3310,#3320,#3330);
#3350=PLANE('',#3340);
#3360=ORIENTED_EDGE('',*,*,#3250,.F.);
#3370=ORIENTED_EDGE('',*,*,#2970,.T.);
#3380=CARTESIAN_POINT('',(-18.474431,-1.15428,0.));
#3390=DIRECTION('',(0.,0.,1.));
#3400=VECTOR('',#3390,1.);
#3410=LINE('',#3380,#3400);
#3420=EDGE_CURVE('',#220,#2880,#3410,.T.);
#3430=ORIENTED_EDGE('',*,*,#3420,.T.);
#3440=ORIENTED_EDGE('',*,*,#230,.F.);
#3450=EDGE_LOOP('',(#3440,#3430,#3370,#3360));
#3460=FACE_OUTER_BOUND('',#3450,.T.);
#3470=ADVANCED_FACE('',(#3460),#3350,.T.);
#3480=CARTESIAN_POINT('',(-16.974431,1.84571999999999,0.));
#3490=DIRECTION('',(9.69794815023921E-15,1.,0.));
#3500=DIRECTION('',(1.,-9.69794815023921E-15,0.));
#3510=AXIS2_PLACEMENT_3D('',#3480,#3490,#3500);
#3520=PLANE('',#3510);
#3530=CARTESIAN_POINT('',(17.025569,1.84571999999966,0.));
#3540=DIRECTION('',(0.,0.,1.));
#3550=VECTOR('',#3540,1.);
#3560=LINE('',#3530,#3550);
#3570=EDGE_CURVE('',#1430,#1670,#3560,.T.);
#3580=ORIENTED_EDGE('',*,*,#3570,.F.);
#3590=ORIENTED_EDGE('',*,*,#1680,.T.);
#3600=ORIENTED_EDGE('',*,*,#3180,.T.);
#3610=ORIENTED_EDGE('',*,*,#1500,.F.);
#3620=EDGE_LOOP('',(#3610,#3600,#3590,#3580));
#3630=FACE_OUTER_BOUND('',#3620,.T.);
#3640=ADVANCED_FACE('',(#3630),#3520,.T.);
#3650=CARTESIAN_POINT('',(-5.074431007,-1.15428000000013,0.));
#3660=DIRECTION('',(-0.,-1.,-0.));
#3670=DIRECTION('',(-1.,0.,0.));
#3680=AXIS2_PLACEMENT_3D('',#3650,#3660,#3670);
#3690=PLANE('',#3680);
#3700=ORIENTED_EDGE('',*,*,#3420,.F.);
#3710=ORIENTED_EDGE('',*,*,#2890,.F.);
#3720=CARTESIAN_POINT('',(-4.974431007,-1.15428000000013,0.));
#3730=DIRECTION('',(0.,0.,1.));
#3740=VECTOR('',#3730,1.);
#3750=LINE('',#3720,#3740);
#3760=EDGE_CURVE('',#300,#2800,#3750,.T.);
#3770=ORIENTED_EDGE('',*,*,#3760,.T.);
#3780=ORIENTED_EDGE('',*,*,#310,.T.);
#3790=EDGE_LOOP('',(#3780,#3770,#3710,#3700));
#3800=FACE_OUTER_BOUND('',#3790,.T.);
#3810=ADVANCED_FACE('',(#3800),#3690,.T.);
#3820=CARTESIAN_POINT('',(-4.974431007,-3.15428000000008,0.));
#3830=DIRECTION('',(-1.,0.,0.));
#3840=DIRECTION('',(0.,1.,0.));
#3850=AXIS2_PLACEMENT_3D('',#3820,#3830,#3840);
#3860=PLANE('',#3850);
#3870=ORIENTED_EDGE('',*,*,#3760,.F.);
#3880=ORIENTED_EDGE('',*,*,#2810,.T.);
#3890=CARTESIAN_POINT('',(-4.974431007,-3.15428000000008,0.));
#3900=DIRECTION('',(0.,0.,1.));
#3910=VECTOR('',#3900,1.);
#3920=LINE('',#3890,#3910);
#3930=EDGE_CURVE('',#380,#2720,#3920,.T.);
#3940=ORIENTED_EDGE('',*,*,#3930,.T.);
#3950=ORIENTED_EDGE('',*,*,#390,.F.);
#3960=EDGE_LOOP('',(#3950,#3940,#3880,#3870));
#3970=FACE_OUTER_BOUND('',#3960,.T.);
#3980=ADVANCED_FACE('',(#3970),#3860,.T.);
#3990=CARTESIAN_POINT('',(-5.724431007,-3.15428000000008,0.));
#4000=DIRECTION('',(-0.,1.,0.));
#4010=DIRECTION('',(1.,0.,0.));
#4020=AXIS2_PLACEMENT_3D('',#3990,#4000,#4010);
#4030=PLANE('',#4020);
#4040=ORIENTED_EDGE('',*,*,#3930,.F.);
#4050=ORIENTED_EDGE('',*,*,#2730,.T.);
#4060=CARTESIAN_POINT('',(-5.724431007,-3.15428000000008,0.));
#4070=DIRECTION('',(0.,0.,1.));
#4080=VECTOR('',#4070,1.);
#4090=LINE('',#4060,#4080);
#4100=EDGE_CURVE('',#460,#2640,#4090,.T.);
#4110=ORIENTED_EDGE('',*,*,#4100,.T.);
#4120=ORIENTED_EDGE('',*,*,#470,.F.);
#4130=EDGE_LOOP('',(#4120,#4110,#4050,#4040));
#4140=FACE_OUTER_BOUND('',#4130,.T.);
#4150=ADVANCED_FACE('',(#4140),#4030,.T.);
#4160=CARTESIAN_POINT('',(-3.41502993,-7.15428000000003,0.));
#4170=DIRECTION('',(-0.866025403761795,-0.50000000003922,-0.));
#4180=DIRECTION('',(-0.50000000003922,0.866025403761795,0.));
#4190=AXIS2_PLACEMENT_3D('',#4160,#4170,#4180);
#4200=PLANE('',#4190);
#4210=ORIENTED_EDGE('',*,*,#4100,.F.);
#4220=ORIENTED_EDGE('',*,*,#2650,.T.);
#4230=CARTESIAN_POINT('',(-3.41502993,-7.15428000000003,0.));
#4240=DIRECTION('',(0.,0.,1.));
#4250=VECTOR('',#4240,1.);
#4260=LINE('',#4230,#4250);
#4270=EDGE_CURVE('',#540,#2560,#4260,.T.);
#4280=ORIENTED_EDGE('',*,*,#4270,.T.);
#4290=ORIENTED_EDGE('',*,*,#550,.F.);
#4300=EDGE_LOOP('',(#4290,#4280,#4220,#4210));
#4310=FACE_OUTER_BOUND('',#4300,.T.);
#4320=ADVANCED_FACE('',(#4310),#4200,.T.);
#4330=CARTESIAN_POINT('',(-2.974431,-7.15428,0.));
#4340=DIRECTION('',(-0.,-1.,-0.));
#4350=DIRECTION('',(-1.,0.,0.));
#4360=AXIS2_PLACEMENT_3D('',#4330,#4340,#4350);
#4370=PLANE('',#4360);
#4380=ORIENTED_EDGE('',*,*,#4270,.F.);
#4390=ORIENTED_EDGE('',*,*,#2570,.T.);
#4400=CARTESIAN_POINT('',(-2.974431,-7.15428,0.));
#4410=DIRECTION('',(0.,0.,1.));
#4420=VECTOR('',#4410,1.);
#4430=LINE('',#4400,#4420);
#4440=EDGE_CURVE('',#620,#2480,#4430,.T.);
#4450=ORIENTED_EDGE('',*,*,#4440,.T.);
#4460=ORIENTED_EDGE('',*,*,#630,.F.);
#4470=EDGE_LOOP('',(#4460,#4450,#4390,#4380));
#4480=FACE_OUTER_BOUND('',#4470,.T.);
#4490=ADVANCED_FACE('',(#4480),#4370,.T.);
#4500=CARTESIAN_POINT('',(-2.974431,-0.15428,0.));
#4510=DIRECTION('',(1.,0.,0.));
#4520=DIRECTION('',(0.,-1.,0.));
#4530=AXIS2_PLACEMENT_3D('',#4500,#4510,#4520);
#4540=PLANE('',#4530);
#4550=ORIENTED_EDGE('',*,*,#4440,.F.);
#4560=ORIENTED_EDGE('',*,*,#2490,.F.);
#4570=CARTESIAN_POINT('',(-2.974431,-1.15428,0.));
#4580=DIRECTION('',(0.,0.,1.));
#4590=VECTOR('',#4580,1.);
#4600=LINE('',#4570,#4590);
#4610=EDGE_CURVE('',#700,#2400,#4600,.T.);
#4620=ORIENTED_EDGE('',*,*,#4610,.T.);
#4630=ORIENTED_EDGE('',*,*,#710,.T.);
#4640=EDGE_LOOP('',(#4630,#4620,#4560,#4550));
#4650=FACE_OUTER_BOUND('',#4640,.T.);
#4660=ADVANCED_FACE('',(#4650),#4540,.T.);
#4670=CARTESIAN_POINT('',(3.025569,-1.15428,0.));
#4680=DIRECTION('',(-0.,-1.,-0.));
#4690=DIRECTION('',(-1.,0.,0.));
#4700=AXIS2_PLACEMENT_3D('',#4670,#4680,#4690);
#4710=PLANE('',#4700);
#4720=ORIENTED_EDGE('',*,*,#4610,.F.);
#4730=ORIENTED_EDGE('',*,*,#2410,.F.);
#4740=CARTESIAN_POINT('',(3.025569,-1.15428,0.));
#4750=DIRECTION('',(0.,0.,1.));
#4760=VECTOR('',#4750,1.);
#4770=LINE('',#4740,#4760);
#4780=EDGE_CURVE('',#780,#2320,#4770,.T.);
#4790=ORIENTED_EDGE('',*,*,#4780,.T.);
#4800=ORIENTED_EDGE('',*,*,#790,.T.);
#4810=EDGE_LOOP('',(#4800,#4790,#4730,#4720));
#4820=FACE_OUTER_BOUND('',#4810,.T.);
#4830=ADVANCED_FACE('',(#4820),#4710,.T.);
#4840=CARTESIAN_POINT('',(3.025569,-7.15428,0.));
#4850=DIRECTION('',(-1.,0.,0.));
#4860=DIRECTION('',(0.,1.,0.));
#4870=AXIS2_PLACEMENT_3D('',#4840,#4850,#4860);
#4880=PLANE('',#4870);
#4890=ORIENTED_EDGE('',*,*,#4780,.F.);
#4900=ORIENTED_EDGE('',*,*,#2330,.F.);
#4910=CARTESIAN_POINT('',(3.025569,-7.15428,0.));
#4920=DIRECTION('',(0.,0.,1.));
#4930=VECTOR('',#4920,1.);
#4940=LINE('',#4910,#4930);
#4950=EDGE_CURVE('',#860,#2240,#4940,.T.);
#4960=ORIENTED_EDGE('',*,*,#4950,.T.);
#4970=ORIENTED_EDGE('',*,*,#870,.T.);
#4980=EDGE_LOOP('',(#4970,#4960,#4900,#4890));
#4990=FACE_OUTER_BOUND('',#4980,.T.);
#5000=ADVANCED_FACE('',(#4990),#4880,.T.);
#5010=CARTESIAN_POINT('',(3.46616792,-7.15428000000003,0.));
#5020=DIRECTION('',(-0.,-1.,-0.));
#5030=DIRECTION('',(-1.,0.,0.));
#5040=AXIS2_PLACEMENT_3D('',#5010,#5020,#5030);
#5050=PLANE('',#5040);
#5060=ORIENTED_EDGE('',*,*,#4950,.F.);
#5070=ORIENTED_EDGE('',*,*,#2250,.T.);
#5080=CARTESIAN_POINT('',(3.46616792,-7.15428000000003,0.));
#5090=DIRECTION('',(0.,0.,1.));
#5100=VECTOR('',#5090,1.);
#5110=LINE('',#5080,#5100);
#5120=EDGE_CURVE('',#940,#2160,#5110,.T.);
#5130=ORIENTED_EDGE('',*,*,#5120,.T.);
#5140=ORIENTED_EDGE('',*,*,#950,.F.);
#5150=EDGE_LOOP('',(#5140,#5130,#5070,#5060));
#5160=FACE_OUTER_BOUND('',#5150,.T.);
#5170=ADVANCED_FACE('',(#5160),#5050,.T.);
#5180=CARTESIAN_POINT('',(5.775569,-3.15428000000003,0.));
#5190=DIRECTION('',(0.866025403480548,-0.500000000526354,0.));
#5200=DIRECTION('',(-0.500000000526354,-0.866025403480548,0.));
#5210=AXIS2_PLACEMENT_3D('',#5180,#5190,#5200);
#5220=PLANE('',#5210);
#5230=ORIENTED_EDGE('',*,*,#5120,.F.);
#5240=ORIENTED_EDGE('',*,*,#2170,.T.);
#5250=CARTESIAN_POINT('',(5.775569,-3.15428000000003,0.));
#5260=DIRECTION('',(0.,0.,1.));
#5270=VECTOR('',#5260,1.);
#5280=LINE('',#5250,#5270);
#5290=EDGE_CURVE('',#1020,#2080,#5280,.T.);
#5300=ORIENTED_EDGE('',*,*,#5290,.T.);
#5310=ORIENTED_EDGE('',*,*,#1030,.F.);
#5320=EDGE_LOOP('',(#5310,#5300,#5240,#5230));
#5330=FACE_OUTER_BOUND('',#5320,.T.);
#5340=ADVANCED_FACE('',(#5330),#5220,.T.);
#5350=CARTESIAN_POINT('',(5.125569,-3.15428000000003,0.));
#5360=DIRECTION('',(-0.,1.,0.));
#5370=DIRECTION('',(1.,0.,0.));
#5380=AXIS2_PLACEMENT_3D('',#5350,#5360,#5370);
#5390=PLANE('',#5380);
#5400=ORIENTED_EDGE('',*,*,#5290,.F.);
#5410=ORIENTED_EDGE('',*,*,#2090,.T.);
#5420=CARTESIAN_POINT('',(5.025569,-3.15428000000003,0.));
#5430=DIRECTION('',(0.,0.,1.));
#5440=VECTOR('',#5430,1.);
#5450=LINE('',#5420,#5440);
#5460=EDGE_CURVE('',#1100,#2000,#5450,.T.);
#5470=ORIENTED_EDGE('',*,*,#5460,.T.);
#5480=ORIENTED_EDGE('',*,*,#1110,.F.);
#5490=EDGE_LOOP('',(#5480,#5470,#5410,#5400));
#5500=FACE_OUTER_BOUND('',#5490,.T.);
#5510=ADVANCED_FACE('',(#5500),#5390,.T.);
#5520=CARTESIAN_POINT('',(5.025569,-1.15428,0.));
#5530=DIRECTION('',(1.,0.,0.));
#5540=DIRECTION('',(0.,-1.,0.));
#5550=AXIS2_PLACEMENT_3D('',#5520,#5530,#5540);
#5560=PLANE('',#5550);
#5570=ORIENTED_EDGE('',*,*,#5460,.F.);
#5580=ORIENTED_EDGE('',*,*,#2010,.T.);
#5590=CARTESIAN_POINT('',(5.025569,-1.15428,0.));
#5600=DIRECTION('',(0.,0.,1.));
#5610=VECTOR('',#5600,1.);
#5620=LINE('',#5590,#5610);
#5630=EDGE_CURVE('',#1180,#1920,#5620,.T.);
#5640=ORIENTED_EDGE('',*,*,#5630,.T.);
#5650=ORIENTED_EDGE('',*,*,#1190,.F.);
#5660=EDGE_LOOP('',(#5650,#5640,#5580,#5570));
#5670=FACE_OUTER_BOUND('',#5660,.T.);
#5680=ADVANCED_FACE('',(#5670),#5560,.T.);
#5690=CARTESIAN_POINT('',(18.525569,-1.15428,0.));
#5700=DIRECTION('',(-0.,-1.,-0.));
#5710=DIRECTION('',(-1.,0.,0.));
#5720=AXIS2_PLACEMENT_3D('',#5690,#5700,#5710);
#5730=PLANE('',#5720);
#5740=ORIENTED_EDGE('',*,*,#5630,.F.);
#5750=ORIENTED_EDGE('',*,*,#1930,.F.);
#5760=CARTESIAN_POINT('',(18.525569,-1.15428,0.));
#5770=DIRECTION('',(0.,0.,1.));
#5780=VECTOR('',#5770,1.);
#5790=LINE('',#5760,#5780);
#5800=EDGE_CURVE('',#1260,#1840,#5790,.T.);
#5810=ORIENTED_EDGE('',*,*,#5800,.T.);
#5820=ORIENTED_EDGE('',*,*,#1270,.T.);
#5830=EDGE_LOOP('',(#5820,#5810,#5750,#5740));
#5840=FACE_OUTER_BOUND('',#5830,.T.);
#5850=ADVANCED_FACE('',(#5840),#5730,.T.);
#5860=CARTESIAN_POINT('',(18.525569,-0.15428,0.));
#5870=DIRECTION('',(1.,0.,0.));
#5880=DIRECTION('',(0.,-1.,0.));
#5890=AXIS2_PLACEMENT_3D('',#5860,#5870,#5880);
#5900=PLANE('',#5890);
#5910=ORIENTED_EDGE('',*,*,#5800,.F.);
#5920=ORIENTED_EDGE('',*,*,#1850,.T.);
#5930=CARTESIAN_POINT('',(18.525569,0.345719999999656,0.));
#5940=DIRECTION('',(0.,0.,1.));
#5950=VECTOR('',#5940,1.);
#5960=LINE('',#5930,#5950);
#5970=EDGE_CURVE('',#1340,#1760,#5960,.T.);
#5980=ORIENTED_EDGE('',*,*,#5970,.T.);
#5990=ORIENTED_EDGE('',*,*,#1350,.F.);
#6000=EDGE_LOOP('',(#5990,#5980,#5920,#5910));
#6010=FACE_OUTER_BOUND('',#6000,.T.);
#6020=ADVANCED_FACE('',(#6010),#5900,.T.);
#6030=CARTESIAN_POINT('',(17.025569,0.345719999999656,0.));
#6040=DIRECTION('',(0.,0.,1.));
#6050=DIRECTION('',(1.,0.,0.));
#6060=AXIS2_PLACEMENT_3D('',#6030,#6040,#6050);
#6070=CYLINDRICAL_SURFACE('',#6060,1.5);
#6080=ORIENTED_EDGE('',*,*,#5970,.F.);
#6090=ORIENTED_EDGE('',*,*,#1770,.F.);
#6100=ORIENTED_EDGE('',*,*,#3570,.T.);
#6110=ORIENTED_EDGE('',*,*,#1440,.T.);
#6120=EDGE_LOOP('',(#6110,#6100,#6090,#6080));
#6130=FACE_OUTER_BOUND('',#6120,.T.);
#6140=ADVANCED_FACE('',(#6130),#6070,.T.);
#6150=CLOSED_SHELL('',(#3300,#3470,#3640,#3810,#3980,#4150,#4320,#4490,
#4660,#4830,#5000,#5170,#5340,#5510,#5680,#5850,#6020,#6140,#3080,#1540)
);
#6160=MANIFOLD_SOLID_BREP('',#6150);
#6170=CARTESIAN_POINT('',(0.,0.,0.));
#6180=DIRECTION('',(0.,0.,1.));
#6190=DIRECTION('',(1.,0.,0.));
#6200=AXIS2_PLACEMENT_3D('',#6170,#6180,#6190);
#6210=APPLICATION_CONTEXT(' ');
#6220=APPLICATION_PROTOCOL_DEFINITION(' ','automotive_design',1998,#6210
);
#6230=PRODUCT_CONTEXT('',#6210,'mechanical');
#6240=PRODUCT_DEFINITION_CONTEXT('part definition',#6210,'design');
#6250=PRODUCT(
'Profilabdeckung-Flach-MMS-44_37x3-grau_44.0301.3_PX174822',
'Profilabdeckung-Flach-MMS-44_37x3-grau_44.0301.3_PX174822','',(#6230));
#6260=PRODUCT_RELATED_PRODUCT_CATEGORY('part',' ',(#6250));
#6270=PRODUCT_DEFINITION_FORMATION_WITH_SPECIFIED_SOURCE('','',#6250,
.BOUGHT.);
#6280=PRODUCT_DEFINITION('',' ',#6270,#6240);
#6290=PRODUCT_DEFINITION_SHAPE('','',#6280);
#6300=DIMENSIONAL_EXPONENTS(1.,0.,0.,0.,0.,0.,0.);
#6310=DIMENSIONAL_EXPONENTS(0.,0.,0.,0.,0.,0.,0.);
#6320=DIMENSIONAL_EXPONENTS(0.,0.,0.,0.,0.,0.,0.);
#6330=(LENGTH_UNIT() NAMED_UNIT(*) SI_UNIT(.MILLI.,.METRE.));
#6340=(NAMED_UNIT(*) PLANE_ANGLE_UNIT() SI_UNIT($,.RADIAN.));
#6350=(NAMED_UNIT(*) SI_UNIT($,.STERADIAN.) SOLID_ANGLE_UNIT());
#6360=(GEOMETRIC_REPRESENTATION_CONTEXT(3) 
GLOBAL_UNCERTAINTY_ASSIGNED_CONTEXT((#6370)) 
GLOBAL_UNIT_ASSIGNED_CONTEXT((#6330,#6340,#6350)) REPRESENTATION_CONTEXT
('',''));
#6370=UNCERTAINTY_MEASURE_WITH_UNIT(LENGTH_MEASURE(1.E-6),#6330,
'distance_accuracy_value','maximum gap value');
#6380=ADVANCED_BREP_SHAPE_REPRESENTATION('',(#6200,#6160),#6360);
#6390=SHAPE_DEFINITION_REPRESENTATION(#6290,#6380);
#6400=COLOUR_RGB('',0.5686274766922,0.564705908298492,0.537254929542542)
;
#6410=FILL_AREA_STYLE_COLOUR('',#6400);
#6420=FILL_AREA_STYLE('',(#6410));
#6430=SURFACE_STYLE_FILL_AREA(#6420);
#6440=SURFACE_SIDE_STYLE('',(#6430));
#6450=SURFACE_STYLE_USAGE(.BOTH.,#6440);
#6460=PRESENTATION_STYLE_ASSIGNMENT((#6450));
#6470=STYLED_ITEM('',(#6460),#6160);
#6480=DRAUGHTING_MODEL('',(#6470),#6360);
#6490=CARTESIAN_POINT('',(18.474431,1.15428000000013,0.));
#6500=DIRECTION('',(0.,0.,1.));
#6510=DIRECTION('',(1.,0.,0.));
#6520=AXIS2_PLACEMENT_3D('',#6490,#6500,#6510);
#6530=ITEM_DEFINED_TRANSFORMATION(
'Profilabdeckung-Flach-MMS-44_37x3-grau_44.0301.3_PX174822','',#6200,
#6520);
#6540=APPLICATION_CONTEXT(' ');
#6550=APPLICATION_PROTOCOL_DEFINITION(' ','automotive_design',1998,#6540
);
#6560=PRODUCT_CONTEXT('',#6540,'mechanical');
#6570=PRODUCT_DEFINITION_CONTEXT('part definition',#6540,'design');
#6580=PRODUCT(
'Profilabdeckung-Flach-MMS-44_37x3-grau_44.0301.3_PX174822',
'Profilabdeckung-Flach-MMS-44_37x3-grau_44.0301.3_PX174822','',(#6560));
#6590=PRODUCT_RELATED_PRODUCT_CATEGORY('part',' ',(#6580));
#6600=PRODUCT_DEFINITION_FORMATION_WITH_SPECIFIED_SOURCE('','',#6580,
.BOUGHT.);
#6610=PRODUCT_DEFINITION('',' ',#6600,#6570);
#6620=PRODUCT_DEFINITION_SHAPE('','',#6610);
#6630=DIMENSIONAL_EXPONENTS(1.,0.,0.,0.,0.,0.,0.);
#6640=DIMENSIONAL_EXPONENTS(0.,0.,0.,0.,0.,0.,0.);
#6650=DIMENSIONAL_EXPONENTS(0.,0.,0.,0.,0.,0.,0.);
#6660=(LENGTH_UNIT() NAMED_UNIT(*) SI_UNIT(.MILLI.,.METRE.));
#6670=(NAMED_UNIT(*) PLANE_ANGLE_UNIT() SI_UNIT($,.RADIAN.));
#6680=(NAMED_UNIT(*) SI_UNIT($,.STERADIAN.) SOLID_ANGLE_UNIT());
#6690=(GEOMETRIC_REPRESENTATION_CONTEXT(3) 
GLOBAL_UNCERTAINTY_ASSIGNED_CONTEXT((#6700)) 
GLOBAL_UNIT_ASSIGNED_CONTEXT((#6660,#6670,#6680)) REPRESENTATION_CONTEXT
('',''));
#6700=UNCERTAINTY_MEASURE_WITH_UNIT(LENGTH_MEASURE(1.E-6),#6660,
'distance_accuracy_value','maximum gap value');
#6710=SHAPE_REPRESENTATION('',(#6200,#6520),#6690);
#6720=SHAPE_DEFINITION_REPRESENTATION(#6620,#6710);
#6730=(REPRESENTATION_RELATIONSHIP('','',#6380,#6710) 
REPRESENTATION_RELATIONSHIP_WITH_TRANSFORMATION(#6530) 
SHAPE_REPRESENTATION_RELATIONSHIP());
#6740=NEXT_ASSEMBLY_USAGE_OCCURRENCE('1','',
'Profilabdeckung-Flach-MMS-44_37x3-grau_44.0301.3_PX174822',#6610,#6280,
'');
#6750=PRODUCT_DEFINITION_SHAPE('','',#6740);
#6760=CONTEXT_DEPENDENT_SHAPE_REPRESENTATION(#6730,#6750);
ENDSEC;
END-ISO-10303-21;
