ISO-10303-21;
HEADER;
FILE_DESCRIPTION(('Creo Elements/Direct Modeling STEP Export'),'2;1');
FILE_NAME(
'//KR-CAD2/PhoenixTemp/karl.letzgus/Konvertierung/44.0321_Schiebet\S\|re
nprofil-MMS-44_schwarz-Unten.stp','2022-03-21T 9:01:51',(''),(''),
'PTC Creo Elements/Direct Modeling STEP processor for AP214 (Solid Model
)',
'PTC Creo Elements/Direct Modeling 19.0C  15-Aug-2015 (C) Parametric Tec
hnology GmbH','');
FILE_SCHEMA(('AUTOMOTIVE_DESIGN { 1 0 10303 214 1 1 1 1 }'));
ENDSEC;
DATA;
#10=CARTESIAN_POINT('',(0.,0.,0.));
#20=DIRECTION('',(0.,0.,1.));
#30=DIRECTION('',(1.,0.,0.));
#40=AXIS2_PLACEMENT_3D('',#10,#20,#30);
#50=PLANE('',#40);
#60=CARTESIAN_POINT('',(-1.390249,-8.165764,0.));
#70=DIRECTION('',(1.,0.,0.));
#80=VECTOR('',#70,1.);
#90=LINE('',#60,#80);
#100=CARTESIAN_POINT('',(-6.390249,-8.165764,0.));
#110=VERTEX_POINT('',#100);
#120=CARTESIAN_POINT('',(3.609751,-8.165764,0.));
#130=VERTEX_POINT('',#120);
#140=EDGE_CURVE('',#110,#130,#90,.T.);
#150=ORIENTED_EDGE('',*,*,#140,.F.);
#160=CARTESIAN_POINT('',(3.609751,-5.165764,0.));
#170=DIRECTION('',(0.,1.,0.));
#180=VECTOR('',#170,1.);
#190=LINE('',#160,#180);
#200=CARTESIAN_POINT('',(3.609751,2.834236,0.));
#210=VERTEX_POINT('',#200);
#220=EDGE_CURVE('',#130,#210,#190,.T.);
#230=ORIENTED_EDGE('',*,*,#220,.F.);
#240=CARTESIAN_POINT('',(-1.390249,2.834236,0.));
#250=DIRECTION('',(-1.,0.,0.));
#260=VECTOR('',#250,1.);
#270=LINE('',#240,#260);
#280=CARTESIAN_POINT('',(-6.390249,2.834236,0.));
#290=VERTEX_POINT('',#280);
#300=EDGE_CURVE('',#210,#290,#270,.T.);
#310=ORIENTED_EDGE('',*,*,#300,.F.);
#320=CARTESIAN_POINT('',(-6.390249,-5.165764,0.));
#330=DIRECTION('',(0.,-1.,0.));
#340=VECTOR('',#330,1.);
#350=LINE('',#320,#340);
#360=EDGE_CURVE('',#290,#110,#350,.T.);
#370=ORIENTED_EDGE('',*,*,#360,.F.);
#380=EDGE_LOOP('',(#370,#310,#230,#150));
#390=FACE_OUTER_BOUND('',#380,.T.);
#400=ADVANCED_FACE('',(#390),#50,.F.);
#410=CARTESIAN_POINT('',(-6.390249,-5.165764,0.));
#420=DIRECTION('',(-1.,0.,0.));
#430=DIRECTION('',(0.,1.,0.));
#440=AXIS2_PLACEMENT_3D('',#410,#420,#430);
#450=PLANE('',#440);
#460=CARTESIAN_POINT('',(-6.390249,2.834236,0.));
#470=DIRECTION('',(0.,0.,1.));
#480=VECTOR('',#470,1.);
#490=LINE('',#460,#480);
#500=CARTESIAN_POINT('',(-6.390249,2.834236,100.));
#510=VERTEX_POINT('',#500);
#520=EDGE_CURVE('',#290,#510,#490,.T.);
#530=ORIENTED_EDGE('',*,*,#520,.F.);
#540=CARTESIAN_POINT('',(-6.390249,-5.165764,100.));
#550=DIRECTION('',(0.,-1.,0.));
#560=VECTOR('',#550,1.);
#570=LINE('',#540,#560);
#580=CARTESIAN_POINT('',(-6.390249,-8.165764,100.));
#590=VERTEX_POINT('',#580);
#600=EDGE_CURVE('',#510,#590,#570,.T.);
#610=ORIENTED_EDGE('',*,*,#600,.F.);
#620=CARTESIAN_POINT('',(-6.390249,-8.165764,0.));
#630=DIRECTION('',(0.,0.,1.));
#640=VECTOR('',#630,1.);
#650=LINE('',#620,#640);
#660=EDGE_CURVE('',#110,#590,#650,.T.);
#670=ORIENTED_EDGE('',*,*,#660,.T.);
#680=ORIENTED_EDGE('',*,*,#360,.T.);
#690=EDGE_LOOP('',(#680,#670,#610,#530));
#700=FACE_OUTER_BOUND('',#690,.T.);
#710=ADVANCED_FACE('',(#700),#450,.T.);
#720=CARTESIAN_POINT('',(3.609751,2.834236,0.));
#730=DIRECTION('',(1.,0.,0.));
#740=DIRECTION('',(0.,-1.,0.));
#750=AXIS2_PLACEMENT_3D('',#720,#730,#740);
#760=PLANE('',#750);
#770=CARTESIAN_POINT('',(3.609751,-8.165764,0.));
#780=DIRECTION('',(0.,0.,1.));
#790=VECTOR('',#780,1.);
#800=LINE('',#770,#790);
#810=CARTESIAN_POINT('',(3.609751,-8.165764,100.));
#820=VERTEX_POINT('',#810);
#830=EDGE_CURVE('',#130,#820,#800,.T.);
#840=ORIENTED_EDGE('',*,*,#830,.F.);
#850=CARTESIAN_POINT('',(3.609751,-5.165764,100.));
#860=DIRECTION('',(0.,1.,0.));
#870=VECTOR('',#860,1.);
#880=LINE('',#850,#870);
#890=CARTESIAN_POINT('',(3.609751,2.834236,100.));
#900=VERTEX_POINT('',#890);
#910=EDGE_CURVE('',#820,#900,#880,.T.);
#920=ORIENTED_EDGE('',*,*,#910,.F.);
#930=CARTESIAN_POINT('',(3.609751,2.834236,0.));
#940=DIRECTION('',(0.,0.,1.));
#950=VECTOR('',#940,1.);
#960=LINE('',#930,#950);
#970=EDGE_CURVE('',#210,#900,#960,.T.);
#980=ORIENTED_EDGE('',*,*,#970,.T.);
#990=ORIENTED_EDGE('',*,*,#220,.T.);
#1000=EDGE_LOOP('',(#990,#980,#920,#840));
#1010=FACE_OUTER_BOUND('',#1000,.T.);
#1020=ADVANCED_FACE('',(#1010),#760,.T.);
#1030=CARTESIAN_POINT('',(-6.390249,2.834236,0.));
#1040=DIRECTION('',(-0.,1.,0.));
#1050=DIRECTION('',(1.,0.,0.));
#1060=AXIS2_PLACEMENT_3D('',#1030,#1040,#1050);
#1070=PLANE('',#1060);
#1080=ORIENTED_EDGE('',*,*,#970,.F.);
#1090=CARTESIAN_POINT('',(-1.390249,2.834236,100.));
#1100=DIRECTION('',(-1.,0.,0.));
#1110=VECTOR('',#1100,1.);
#1120=LINE('',#1090,#1110);
#1130=EDGE_CURVE('',#900,#510,#1120,.T.);
#1140=ORIENTED_EDGE('',*,*,#1130,.F.);
#1150=ORIENTED_EDGE('',*,*,#520,.T.);
#1160=ORIENTED_EDGE('',*,*,#300,.T.);
#1170=EDGE_LOOP('',(#1160,#1150,#1140,#1080));
#1180=FACE_OUTER_BOUND('',#1170,.T.);
#1190=ADVANCED_FACE('',(#1180),#1070,.T.);
#1200=CARTESIAN_POINT('',(0.,0.,100.));
#1210=DIRECTION('',(0.,0.,1.));
#1220=DIRECTION('',(1.,0.,0.));
#1230=AXIS2_PLACEMENT_3D('',#1200,#1210,#1220);
#1240=PLANE('',#1230);
#1250=CARTESIAN_POINT('',(-1.390249,-8.165764,100.));
#1260=DIRECTION('',(1.,0.,0.));
#1270=VECTOR('',#1260,1.);
#1280=LINE('',#1250,#1270);
#1290=EDGE_CURVE('',#590,#820,#1280,.T.);
#1300=ORIENTED_EDGE('',*,*,#1290,.T.);
#1310=ORIENTED_EDGE('',*,*,#600,.T.);
#1320=ORIENTED_EDGE('',*,*,#1130,.T.);
#1330=ORIENTED_EDGE('',*,*,#910,.T.);
#1340=EDGE_LOOP('',(#1330,#1320,#1310,#1300));
#1350=FACE_OUTER_BOUND('',#1340,.T.);
#1360=ADVANCED_FACE('',(#1350),#1240,.T.);
#1370=CARTESIAN_POINT('',(3.609751,-8.165764,0.));
#1380=DIRECTION('',(-0.,-1.,-0.));
#1390=DIRECTION('',(-1.,0.,0.));
#1400=AXIS2_PLACEMENT_3D('',#1370,#1380,#1390);
#1410=PLANE('',#1400);
#1420=ORIENTED_EDGE('',*,*,#660,.F.);
#1430=ORIENTED_EDGE('',*,*,#1290,.F.);
#1440=ORIENTED_EDGE('',*,*,#830,.T.);
#1450=ORIENTED_EDGE('',*,*,#140,.T.);
#1460=EDGE_LOOP('',(#1450,#1440,#1430,#1420));
#1470=FACE_OUTER_BOUND('',#1460,.T.);
#1480=ADVANCED_FACE('',(#1470),#1410,.T.);
#1490=CLOSED_SHELL('',(#710,#1020,#1190,#1360,#1480,#400));
#1500=MANIFOLD_SOLID_BREP('',#1490);
#1510=CARTESIAN_POINT('',(0.,0.,0.));
#1520=DIRECTION('',(0.,0.,1.));
#1530=DIRECTION('',(1.,0.,0.));
#1540=AXIS2_PLACEMENT_3D('',#1510,#1520,#1530);
#1550=APPLICATION_CONTEXT(' ');
#1560=APPLICATION_PROTOCOL_DEFINITION(' ','automotive_design',1998,#1550
);
#1570=PRODUCT_CONTEXT('',#1550,'mechanical');
#1580=PRODUCT_DEFINITION_CONTEXT('part definition',#1550,'design');
#1590=PRODUCT(
'Schiebet\S\|renprofil-MMS-44_schwarz-Unten_44.0321_PX175402',
'Schiebet\S\|renprofil-MMS-44_schwarz-Unten_44.0321_PX175402','',(#1570)
);
#1600=PRODUCT_RELATED_PRODUCT_CATEGORY('part',' ',(#1590));
#1610=PRODUCT_DEFINITION_FORMATION_WITH_SPECIFIED_SOURCE('','',#1590,
.BOUGHT.);
#1620=PRODUCT_DEFINITION('',' ',#1610,#1580);
#1630=PRODUCT_DEFINITION_SHAPE('','',#1620);
#1640=DIMENSIONAL_EXPONENTS(1.,0.,0.,0.,0.,0.,0.);
#1650=DIMENSIONAL_EXPONENTS(0.,0.,0.,0.,0.,0.,0.);
#1660=DIMENSIONAL_EXPONENTS(0.,0.,0.,0.,0.,0.,0.);
#1670=(LENGTH_UNIT() NAMED_UNIT(*) SI_UNIT(.MILLI.,.METRE.));
#1680=(NAMED_UNIT(*) PLANE_ANGLE_UNIT() SI_UNIT($,.RADIAN.));
#1690=(NAMED_UNIT(*) SI_UNIT($,.STERADIAN.) SOLID_ANGLE_UNIT());
#1700=(GEOMETRIC_REPRESENTATION_CONTEXT(3) 
GLOBAL_UNCERTAINTY_ASSIGNED_CONTEXT((#1710)) 
GLOBAL_UNIT_ASSIGNED_CONTEXT((#1670,#1680,#1690)) REPRESENTATION_CONTEXT
('',''));
#1710=UNCERTAINTY_MEASURE_WITH_UNIT(LENGTH_MEASURE(1.E-6),#1670,
'distance_accuracy_value','maximum gap value');
#1720=ADVANCED_BREP_SHAPE_REPRESENTATION('',(#1540,#1500),#1700);
#1730=SHAPE_DEFINITION_REPRESENTATION(#1630,#1720);
#1740=COLOUR_RGB('',0.0823529437184334,0.0862745121121407,
0.0980392247438431);
#1750=FILL_AREA_STYLE_COLOUR('',#1740);
#1760=FILL_AREA_STYLE('',(#1750));
#1770=SURFACE_STYLE_FILL_AREA(#1760);
#1780=SURFACE_SIDE_STYLE('',(#1770));
#1790=SURFACE_STYLE_USAGE(.BOTH.,#1780);
#1800=PRESENTATION_STYLE_ASSIGNMENT((#1790));
#1810=STYLED_ITEM('',(#1800),#1500);
#1820=DRAUGHTING_MODEL('',(#1810),#1700);
ENDSEC;
END-ISO-10303-21;
