ISO-10303-21;
HEADER;
FILE_DESCRIPTION(('Creo Elements/Direct Modeling STEP Export'),'2;1');
FILE_NAME(
'//KR-CAD2/PhoenixTemp/karl.letzgus/Konvertierung/44.0370_Abschlussplatt
e-MMS-44_40x40x8.stp','2022-03-21T 9:02:45',(''),(''),
'PTC Creo Elements/Direct Modeling STEP processor for AP214 (Solid Model
)',
'PTC Creo Elements/Direct Modeling 19.0C  15-Aug-2015 (C) Parametric Tec
hnology GmbH','');
FILE_SCHEMA(('AUTOMOTIVE_DESIGN { 1 0 10303 214 1 1 1 1 }'));
ENDSEC;
DATA;
#10=CARTESIAN_POINT('',(0.,0.,0.));
#20=DIRECTION('',(0.,0.,1.));
#30=DIRECTION('',(1.,0.,0.));
#40=AXIS2_PLACEMENT_3D('',#10,#20,#30);
#50=PLANE('',#40);
#60=CARTESIAN_POINT('',(35.,35.,0.));
#70=DIRECTION('',(0.,0.,1.));
#80=DIRECTION('',(1.,0.,0.));
#90=AXIS2_PLACEMENT_3D('',#60,#70,#80);
#100=CIRCLE('',#90,3.25);
#110=CARTESIAN_POINT('',(38.25,35.,0.));
#120=VERTEX_POINT('',#110);
#130=CARTESIAN_POINT('',(31.75,35.,0.));
#140=VERTEX_POINT('',#130);
#150=EDGE_CURVE('',#120,#140,#100,.T.);
#160=ORIENTED_EDGE('',*,*,#150,.T.);
#170=EDGE_CURVE('',#140,#120,#100,.T.);
#180=ORIENTED_EDGE('',*,*,#170,.T.);
#190=EDGE_LOOP('',(#180,#160));
#200=FACE_BOUND('',#190,.T.);
#210=CARTESIAN_POINT('',(35.,5.,0.));
#220=DIRECTION('',(0.,0.,1.));
#230=DIRECTION('',(1.,0.,0.));
#240=AXIS2_PLACEMENT_3D('',#210,#220,#230);
#250=CIRCLE('',#240,3.25);
#260=CARTESIAN_POINT('',(38.25,5.,0.));
#270=VERTEX_POINT('',#260);
#280=CARTESIAN_POINT('',(31.75,5.,0.));
#290=VERTEX_POINT('',#280);
#300=EDGE_CURVE('',#270,#290,#250,.T.);
#310=ORIENTED_EDGE('',*,*,#300,.T.);
#320=EDGE_CURVE('',#290,#270,#250,.T.);
#330=ORIENTED_EDGE('',*,*,#320,.T.);
#340=EDGE_LOOP('',(#330,#310));
#350=FACE_BOUND('',#340,.T.);
#360=CARTESIAN_POINT('',(5.,5.,0.));
#370=DIRECTION('',(0.,0.,1.));
#380=DIRECTION('',(1.,0.,0.));
#390=AXIS2_PLACEMENT_3D('',#360,#370,#380);
#400=CIRCLE('',#390,3.25);
#410=CARTESIAN_POINT('',(8.25,5.,0.));
#420=VERTEX_POINT('',#410);
#430=CARTESIAN_POINT('',(1.75,5.,0.));
#440=VERTEX_POINT('',#430);
#450=EDGE_CURVE('',#420,#440,#400,.T.);
#460=ORIENTED_EDGE('',*,*,#450,.T.);
#470=EDGE_CURVE('',#440,#420,#400,.T.);
#480=ORIENTED_EDGE('',*,*,#470,.T.);
#490=EDGE_LOOP('',(#480,#460));
#500=FACE_BOUND('',#490,.T.);
#510=CARTESIAN_POINT('',(5.,35.,0.));
#520=DIRECTION('',(0.,0.,1.));
#530=DIRECTION('',(1.,0.,0.));
#540=AXIS2_PLACEMENT_3D('',#510,#520,#530);
#550=CIRCLE('',#540,3.25);
#560=CARTESIAN_POINT('',(8.25,35.,0.));
#570=VERTEX_POINT('',#560);
#580=CARTESIAN_POINT('',(1.75,35.,0.));
#590=VERTEX_POINT('',#580);
#600=EDGE_CURVE('',#570,#590,#550,.T.);
#610=ORIENTED_EDGE('',*,*,#600,.T.);
#620=EDGE_CURVE('',#590,#570,#550,.T.);
#630=ORIENTED_EDGE('',*,*,#620,.T.);
#640=EDGE_LOOP('',(#630,#610));
#650=FACE_BOUND('',#640,.T.);
#660=CARTESIAN_POINT('',(-39.,0.,0.));
#670=DIRECTION('',(-0.707106781186548,-0.707106781186548,0.));
#680=VECTOR('',#670,1.);
#690=LINE('',#660,#680);
#700=CARTESIAN_POINT('',(1.00000000000001,40.,0.));
#710=VERTEX_POINT('',#700);
#720=CARTESIAN_POINT('',(0.,39.,0.));
#730=VERTEX_POINT('',#720);
#740=EDGE_CURVE('',#710,#730,#690,.T.);
#750=ORIENTED_EDGE('',*,*,#740,.F.);
#760=CARTESIAN_POINT('',(0.,40.,0.));
#770=DIRECTION('',(0.,-1.,0.));
#780=VECTOR('',#770,1.);
#790=LINE('',#760,#780);
#800=CARTESIAN_POINT('',(0.,1.,0.));
#810=VERTEX_POINT('',#800);
#820=EDGE_CURVE('',#730,#810,#790,.T.);
#830=ORIENTED_EDGE('',*,*,#820,.F.);
#840=CARTESIAN_POINT('',(1.,0.,0.));
#850=DIRECTION('',(-0.707106781186548,0.707106781186548,0.));
#860=VECTOR('',#850,1.);
#870=LINE('',#840,#860);
#880=CARTESIAN_POINT('',(1.,1.11022302462516E-16,0.));
#890=VERTEX_POINT('',#880);
#900=EDGE_CURVE('',#890,#810,#870,.T.);
#910=ORIENTED_EDGE('',*,*,#900,.T.);
#920=CARTESIAN_POINT('',(0.,0.,0.));
#930=DIRECTION('',(1.,0.,0.));
#940=VECTOR('',#930,1.);
#950=LINE('',#920,#940);
#960=CARTESIAN_POINT('',(39.,5.55111512312578E-17,0.));
#970=VERTEX_POINT('',#960);
#980=EDGE_CURVE('',#890,#970,#950,.T.);
#990=ORIENTED_EDGE('',*,*,#980,.F.);
#1000=CARTESIAN_POINT('',(39.,0.,0.));
#1010=DIRECTION('',(-0.707106781186548,-0.707106781186548,0.));
#1020=VECTOR('',#1010,1.);
#1030=LINE('',#1000,#1020);
#1040=CARTESIAN_POINT('',(40.,1.,0.));
#1050=VERTEX_POINT('',#1040);
#1060=EDGE_CURVE('',#1050,#970,#1030,.T.);
#1070=ORIENTED_EDGE('',*,*,#1060,.T.);
#1080=CARTESIAN_POINT('',(40.,0.,0.));
#1090=DIRECTION('',(0.,1.,0.));
#1100=VECTOR('',#1090,1.);
#1110=LINE('',#1080,#1100);
#1120=CARTESIAN_POINT('',(40.,39.,0.));
#1130=VERTEX_POINT('',#1120);
#1140=EDGE_CURVE('',#1050,#1130,#1110,.T.);
#1150=ORIENTED_EDGE('',*,*,#1140,.F.);
#1160=CARTESIAN_POINT('',(79.,0.,0.));
#1170=DIRECTION('',(0.707106781186548,-0.707106781186548,0.));
#1180=VECTOR('',#1170,1.);
#1190=LINE('',#1160,#1180);
#1200=CARTESIAN_POINT('',(39.,40.,0.));
#1210=VERTEX_POINT('',#1200);
#1220=EDGE_CURVE('',#1210,#1130,#1190,.T.);
#1230=ORIENTED_EDGE('',*,*,#1220,.T.);
#1240=CARTESIAN_POINT('',(40.,40.,0.));
#1250=DIRECTION('',(-1.,0.,0.));
#1260=VECTOR('',#1250,1.);
#1270=LINE('',#1240,#1260);
#1280=EDGE_CURVE('',#1210,#710,#1270,.T.);
#1290=ORIENTED_EDGE('',*,*,#1280,.F.);
#1300=EDGE_LOOP('',(#1290,#1230,#1150,#1070,#990,#910,#830,#750));
#1310=FACE_OUTER_BOUND('',#1300,.T.);
#1320=ADVANCED_FACE('',(#200,#350,#500,#650,#1310),#50,.F.);
#1330=CARTESIAN_POINT('',(0.,0.,8.));
#1340=DIRECTION('',(0.,0.,1.));
#1350=DIRECTION('',(1.,0.,0.));
#1360=AXIS2_PLACEMENT_3D('',#1330,#1340,#1350);
#1370=PLANE('',#1360);
#1380=CARTESIAN_POINT('',(35.,35.,8.));
#1390=DIRECTION('',(0.,0.,1.));
#1400=DIRECTION('',(1.,0.,0.));
#1410=AXIS2_PLACEMENT_3D('',#1380,#1390,#1400);
#1420=CIRCLE('',#1410,3.25);
#1430=CARTESIAN_POINT('',(38.25,35.,8.));
#1440=VERTEX_POINT('',#1430);
#1450=CARTESIAN_POINT('',(31.75,35.,8.));
#1460=VERTEX_POINT('',#1450);
#1470=EDGE_CURVE('',#1440,#1460,#1420,.T.);
#1480=ORIENTED_EDGE('',*,*,#1470,.F.);
#1490=EDGE_CURVE('',#1460,#1440,#1420,.T.);
#1500=ORIENTED_EDGE('',*,*,#1490,.F.);
#1510=EDGE_LOOP('',(#1500,#1480));
#1520=FACE_BOUND('',#1510,.T.);
#1530=CARTESIAN_POINT('',(35.,5.,8.));
#1540=DIRECTION('',(0.,0.,1.));
#1550=DIRECTION('',(1.,0.,0.));
#1560=AXIS2_PLACEMENT_3D('',#1530,#1540,#1550);
#1570=CIRCLE('',#1560,3.25);
#1580=CARTESIAN_POINT('',(38.25,5.,8.));
#1590=VERTEX_POINT('',#1580);
#1600=CARTESIAN_POINT('',(31.75,5.,8.));
#1610=VERTEX_POINT('',#1600);
#1620=EDGE_CURVE('',#1590,#1610,#1570,.T.);
#1630=ORIENTED_EDGE('',*,*,#1620,.F.);
#1640=EDGE_CURVE('',#1610,#1590,#1570,.T.);
#1650=ORIENTED_EDGE('',*,*,#1640,.F.);
#1660=EDGE_LOOP('',(#1650,#1630));
#1670=FACE_BOUND('',#1660,.T.);
#1680=CARTESIAN_POINT('',(5.,5.,8.));
#1690=DIRECTION('',(0.,0.,1.));
#1700=DIRECTION('',(1.,0.,0.));
#1710=AXIS2_PLACEMENT_3D('',#1680,#1690,#1700);
#1720=CIRCLE('',#1710,3.25);
#1730=CARTESIAN_POINT('',(8.25,5.,8.));
#1740=VERTEX_POINT('',#1730);
#1750=CARTESIAN_POINT('',(1.75,5.,8.));
#1760=VERTEX_POINT('',#1750);
#1770=EDGE_CURVE('',#1740,#1760,#1720,.T.);
#1780=ORIENTED_EDGE('',*,*,#1770,.F.);
#1790=EDGE_CURVE('',#1760,#1740,#1720,.T.);
#1800=ORIENTED_EDGE('',*,*,#1790,.F.);
#1810=EDGE_LOOP('',(#1800,#1780));
#1820=FACE_BOUND('',#1810,.T.);
#1830=CARTESIAN_POINT('',(5.,35.,8.));
#1840=DIRECTION('',(0.,0.,1.));
#1850=DIRECTION('',(1.,0.,0.));
#1860=AXIS2_PLACEMENT_3D('',#1830,#1840,#1850);
#1870=CIRCLE('',#1860,3.25);
#1880=CARTESIAN_POINT('',(8.25,35.,8.));
#1890=VERTEX_POINT('',#1880);
#1900=CARTESIAN_POINT('',(1.75,35.,8.));
#1910=VERTEX_POINT('',#1900);
#1920=EDGE_CURVE('',#1890,#1910,#1870,.T.);
#1930=ORIENTED_EDGE('',*,*,#1920,.F.);
#1940=EDGE_CURVE('',#1910,#1890,#1870,.T.);
#1950=ORIENTED_EDGE('',*,*,#1940,.F.);
#1960=EDGE_LOOP('',(#1950,#1930));
#1970=FACE_BOUND('',#1960,.T.);
#1980=CARTESIAN_POINT('',(-39.,0.,8.));
#1990=DIRECTION('',(-0.707106781186548,-0.707106781186548,0.));
#2000=VECTOR('',#1990,1.);
#2010=LINE('',#1980,#2000);
#2020=CARTESIAN_POINT('',(1.00000000000001,40.,8.));
#2030=VERTEX_POINT('',#2020);
#2040=CARTESIAN_POINT('',(0.,39.,8.));
#2050=VERTEX_POINT('',#2040);
#2060=EDGE_CURVE('',#2030,#2050,#2010,.T.);
#2070=ORIENTED_EDGE('',*,*,#2060,.T.);
#2080=CARTESIAN_POINT('',(40.,40.,8.));
#2090=DIRECTION('',(-1.,0.,0.));
#2100=VECTOR('',#2090,1.);
#2110=LINE('',#2080,#2100);
#2120=CARTESIAN_POINT('',(39.,40.,8.));
#2130=VERTEX_POINT('',#2120);
#2140=EDGE_CURVE('',#2130,#2030,#2110,.T.);
#2150=ORIENTED_EDGE('',*,*,#2140,.T.);
#2160=CARTESIAN_POINT('',(79.,0.,8.));
#2170=DIRECTION('',(0.707106781186548,-0.707106781186548,0.));
#2180=VECTOR('',#2170,1.);
#2190=LINE('',#2160,#2180);
#2200=CARTESIAN_POINT('',(40.,39.,8.));
#2210=VERTEX_POINT('',#2200);
#2220=EDGE_CURVE('',#2130,#2210,#2190,.T.);
#2230=ORIENTED_EDGE('',*,*,#2220,.F.);
#2240=CARTESIAN_POINT('',(40.,0.,8.));
#2250=DIRECTION('',(0.,1.,0.));
#2260=VECTOR('',#2250,1.);
#2270=LINE('',#2240,#2260);
#2280=CARTESIAN_POINT('',(40.,0.999999999999998,8.));
#2290=VERTEX_POINT('',#2280);
#2300=EDGE_CURVE('',#2290,#2210,#2270,.T.);
#2310=ORIENTED_EDGE('',*,*,#2300,.T.);
#2320=CARTESIAN_POINT('',(39.,0.,8.));
#2330=DIRECTION('',(-0.707106781186548,-0.707106781186548,0.));
#2340=VECTOR('',#2330,1.);
#2350=LINE('',#2320,#2340);
#2360=CARTESIAN_POINT('',(39.,5.55111512312578E-17,8.));
#2370=VERTEX_POINT('',#2360);
#2380=EDGE_CURVE('',#2290,#2370,#2350,.T.);
#2390=ORIENTED_EDGE('',*,*,#2380,.F.);
#2400=CARTESIAN_POINT('',(0.,0.,8.));
#2410=DIRECTION('',(1.,0.,0.));
#2420=VECTOR('',#2410,1.);
#2430=LINE('',#2400,#2420);
#2440=CARTESIAN_POINT('',(1.,1.11022302462516E-16,8.));
#2450=VERTEX_POINT('',#2440);
#2460=EDGE_CURVE('',#2450,#2370,#2430,.T.);
#2470=ORIENTED_EDGE('',*,*,#2460,.T.);
#2480=CARTESIAN_POINT('',(1.,0.,8.));
#2490=DIRECTION('',(-0.707106781186548,0.707106781186548,0.));
#2500=VECTOR('',#2490,1.);
#2510=LINE('',#2480,#2500);
#2520=CARTESIAN_POINT('',(0.,1.,8.));
#2530=VERTEX_POINT('',#2520);
#2540=EDGE_CURVE('',#2450,#2530,#2510,.T.);
#2550=ORIENTED_EDGE('',*,*,#2540,.F.);
#2560=CARTESIAN_POINT('',(0.,40.,8.));
#2570=DIRECTION('',(0.,-1.,0.));
#2580=VECTOR('',#2570,1.);
#2590=LINE('',#2560,#2580);
#2600=EDGE_CURVE('',#2050,#2530,#2590,.T.);
#2610=ORIENTED_EDGE('',*,*,#2600,.T.);
#2620=EDGE_LOOP('',(#2610,#2550,#2470,#2390,#2310,#2230,#2150,#2070));
#2630=FACE_OUTER_BOUND('',#2620,.T.);
#2640=ADVANCED_FACE('',(#1520,#1670,#1820,#1970,#2630),#1370,.T.);
#2650=CARTESIAN_POINT('',(0.,0.,0.));
#2660=DIRECTION('',(-1.,0.,0.));
#2670=DIRECTION('',(0.,1.,0.));
#2680=AXIS2_PLACEMENT_3D('',#2650,#2660,#2670);
#2690=PLANE('',#2680);
#2700=ORIENTED_EDGE('',*,*,#2600,.F.);
#2710=CARTESIAN_POINT('',(0.,1.,4.));
#2720=DIRECTION('',(0.,0.,1.));
#2730=VECTOR('',#2720,1.);
#2740=LINE('',#2710,#2730);
#2750=EDGE_CURVE('',#810,#2530,#2740,.T.);
#2760=ORIENTED_EDGE('',*,*,#2750,.T.);
#2770=ORIENTED_EDGE('',*,*,#820,.T.);
#2780=CARTESIAN_POINT('',(0.,39.,4.));
#2790=DIRECTION('',(0.,0.,1.));
#2800=VECTOR('',#2790,1.);
#2810=LINE('',#2780,#2800);
#2820=EDGE_CURVE('',#730,#2050,#2810,.T.);
#2830=ORIENTED_EDGE('',*,*,#2820,.F.);
#2840=EDGE_LOOP('',(#2830,#2770,#2760,#2700));
#2850=FACE_OUTER_BOUND('',#2840,.T.);
#2860=ADVANCED_FACE('',(#2850),#2690,.T.);
#2870=CARTESIAN_POINT('',(40.,0.,0.));
#2880=DIRECTION('',(-0.,-1.,-0.));
#2890=DIRECTION('',(-1.,0.,0.));
#2900=AXIS2_PLACEMENT_3D('',#2870,#2880,#2890);
#2910=PLANE('',#2900);
#2920=ORIENTED_EDGE('',*,*,#980,.T.);
#2930=CARTESIAN_POINT('',(1.,0.,4.));
#2940=DIRECTION('',(0.,0.,1.));
#2950=VECTOR('',#2940,1.);
#2960=LINE('',#2930,#2950);
#2970=EDGE_CURVE('',#890,#2450,#2960,.T.);
#2980=ORIENTED_EDGE('',*,*,#2970,.F.);
#2990=ORIENTED_EDGE('',*,*,#2460,.F.);
#3000=CARTESIAN_POINT('',(39.,0.,4.));
#3010=DIRECTION('',(0.,0.,1.));
#3020=VECTOR('',#3010,1.);
#3030=LINE('',#3000,#3020);
#3040=EDGE_CURVE('',#970,#2370,#3030,.T.);
#3050=ORIENTED_EDGE('',*,*,#3040,.T.);
#3060=EDGE_LOOP('',(#3050,#2990,#2980,#2920));
#3070=FACE_OUTER_BOUND('',#3060,.T.);
#3080=ADVANCED_FACE('',(#3070),#2910,.T.);
#3090=CARTESIAN_POINT('',(40.,40.,0.));
#3100=DIRECTION('',(1.,0.,0.));
#3110=DIRECTION('',(0.,-1.,0.));
#3120=AXIS2_PLACEMENT_3D('',#3090,#3100,#3110);
#3130=PLANE('',#3120);
#3140=ORIENTED_EDGE('',*,*,#1140,.T.);
#3150=CARTESIAN_POINT('',(40.,1.,4.));
#3160=DIRECTION('',(0.,0.,1.));
#3170=VECTOR('',#3160,1.);
#3180=LINE('',#3150,#3170);
#3190=EDGE_CURVE('',#1050,#2290,#3180,.T.);
#3200=ORIENTED_EDGE('',*,*,#3190,.F.);
#3210=ORIENTED_EDGE('',*,*,#2300,.F.);
#3220=CARTESIAN_POINT('',(40.,39.,4.));
#3230=DIRECTION('',(0.,0.,1.));
#3240=VECTOR('',#3230,1.);
#3250=LINE('',#3220,#3240);
#3260=EDGE_CURVE('',#1130,#2210,#3250,.T.);
#3270=ORIENTED_EDGE('',*,*,#3260,.T.);
#3280=EDGE_LOOP('',(#3270,#3210,#3200,#3140));
#3290=FACE_OUTER_BOUND('',#3280,.T.);
#3300=ADVANCED_FACE('',(#3290),#3130,.T.);
#3310=CARTESIAN_POINT('',(0.,40.,0.));
#3320=DIRECTION('',(-0.,1.,0.));
#3330=DIRECTION('',(1.,0.,0.));
#3340=AXIS2_PLACEMENT_3D('',#3310,#3320,#3330);
#3350=PLANE('',#3340);
#3360=CARTESIAN_POINT('',(39.,40.,4.));
#3370=DIRECTION('',(0.,0.,1.));
#3380=VECTOR('',#3370,1.);
#3390=LINE('',#3360,#3380);
#3400=EDGE_CURVE('',#1210,#2130,#3390,.T.);
#3410=ORIENTED_EDGE('',*,*,#3400,.F.);
#3420=ORIENTED_EDGE('',*,*,#2140,.F.);
#3430=CARTESIAN_POINT('',(1.,40.,4.));
#3440=DIRECTION('',(0.,0.,1.));
#3450=VECTOR('',#3440,1.);
#3460=LINE('',#3430,#3450);
#3470=EDGE_CURVE('',#710,#2030,#3460,.T.);
#3480=ORIENTED_EDGE('',*,*,#3470,.T.);
#3490=ORIENTED_EDGE('',*,*,#1280,.T.);
#3500=EDGE_LOOP('',(#3490,#3480,#3420,#3410));
#3510=FACE_OUTER_BOUND('',#3500,.T.);
#3520=ADVANCED_FACE('',(#3510),#3350,.T.);
#3530=CARTESIAN_POINT('',(0.5,0.5,4.));
#3540=DIRECTION('',(-0.707106781186548,-0.707106781186548,0.));
#3550=DIRECTION('',(0.707106781186547,-0.707106781186547,0.));
#3560=AXIS2_PLACEMENT_3D('',#3530,#3540,#3550);
#3570=PLANE('',#3560);
#3580=ORIENTED_EDGE('',*,*,#2540,.T.);
#3590=ORIENTED_EDGE('',*,*,#2970,.T.);
#3600=ORIENTED_EDGE('',*,*,#900,.F.);
#3610=ORIENTED_EDGE('',*,*,#2750,.F.);
#3620=EDGE_LOOP('',(#3610,#3600,#3590,#3580));
#3630=FACE_OUTER_BOUND('',#3620,.T.);
#3640=ADVANCED_FACE('',(#3630),#3570,.T.);
#3650=CARTESIAN_POINT('',(0.5,39.5,4.));
#3660=DIRECTION('',(0.707106781186548,-0.707106781186548,0.));
#3670=DIRECTION('',(0.707106781186547,0.707106781186547,0.));
#3680=AXIS2_PLACEMENT_3D('',#3650,#3660,#3670);
#3690=PLANE('',#3680);
#3700=ORIENTED_EDGE('',*,*,#740,.T.);
#3710=ORIENTED_EDGE('',*,*,#3470,.F.);
#3720=ORIENTED_EDGE('',*,*,#2060,.F.);
#3730=ORIENTED_EDGE('',*,*,#2820,.T.);
#3740=EDGE_LOOP('',(#3730,#3720,#3710,#3700));
#3750=FACE_OUTER_BOUND('',#3740,.T.);
#3760=ADVANCED_FACE('',(#3750),#3690,.F.);
#3770=CARTESIAN_POINT('',(39.5,39.5,4.));
#3780=DIRECTION('',(0.707106781186548,0.707106781186548,-0.));
#3790=DIRECTION('',(-0.707106781186547,0.707106781186547,0.));
#3800=AXIS2_PLACEMENT_3D('',#3770,#3780,#3790);
#3810=PLANE('',#3800);
#3820=ORIENTED_EDGE('',*,*,#2220,.T.);
#3830=ORIENTED_EDGE('',*,*,#3400,.T.);
#3840=ORIENTED_EDGE('',*,*,#1220,.F.);
#3850=ORIENTED_EDGE('',*,*,#3260,.F.);
#3860=EDGE_LOOP('',(#3850,#3840,#3830,#3820));
#3870=FACE_OUTER_BOUND('',#3860,.T.);
#3880=ADVANCED_FACE('',(#3870),#3810,.T.);
#3890=CARTESIAN_POINT('',(39.5,0.5,4.));
#3900=DIRECTION('',(0.707106781186548,-0.707106781186548,0.));
#3910=DIRECTION('',(0.707106781186547,0.707106781186547,0.));
#3920=AXIS2_PLACEMENT_3D('',#3890,#3900,#3910);
#3930=PLANE('',#3920);
#3940=ORIENTED_EDGE('',*,*,#2380,.T.);
#3950=ORIENTED_EDGE('',*,*,#3190,.T.);
#3960=ORIENTED_EDGE('',*,*,#1060,.F.);
#3970=ORIENTED_EDGE('',*,*,#3040,.F.);
#3980=EDGE_LOOP('',(#3970,#3960,#3950,#3940));
#3990=FACE_OUTER_BOUND('',#3980,.T.);
#4000=ADVANCED_FACE('',(#3990),#3930,.T.);
#4010=CARTESIAN_POINT('',(35.,35.,-342.));
#4020=DIRECTION('',(0.,0.,1.));
#4030=DIRECTION('',(1.,0.,0.));
#4040=AXIS2_PLACEMENT_3D('',#4010,#4020,#4030);
#4050=CYLINDRICAL_SURFACE('',#4040,3.25);
#4060=CARTESIAN_POINT('',(38.25,35.,-342.));
#4070=DIRECTION('',(0.,0.,1.));
#4080=VECTOR('',#4070,1.);
#4090=LINE('',#4060,#4080);
#4100=EDGE_CURVE('',#120,#1440,#4090,.T.);
#4110=ORIENTED_EDGE('',*,*,#4100,.F.);
#4120=ORIENTED_EDGE('',*,*,#1490,.T.);
#4130=CARTESIAN_POINT('',(31.75,35.,-342.));
#4140=DIRECTION('',(0.,0.,1.));
#4150=VECTOR('',#4140,1.);
#4160=LINE('',#4130,#4150);
#4170=EDGE_CURVE('',#140,#1460,#4160,.T.);
#4180=ORIENTED_EDGE('',*,*,#4170,.T.);
#4190=ORIENTED_EDGE('',*,*,#170,.F.);
#4200=EDGE_LOOP('',(#4190,#4180,#4120,#4110));
#4210=FACE_OUTER_BOUND('',#4200,.T.);
#4220=ADVANCED_FACE('',(#4210),#4050,.F.);
#4230=CARTESIAN_POINT('',(35.,5.,-342.));
#4240=DIRECTION('',(0.,0.,1.));
#4250=DIRECTION('',(1.,0.,0.));
#4260=AXIS2_PLACEMENT_3D('',#4230,#4240,#4250);
#4270=CYLINDRICAL_SURFACE('',#4260,3.25);
#4280=CARTESIAN_POINT('',(38.25,5.,-342.));
#4290=DIRECTION('',(0.,0.,1.));
#4300=VECTOR('',#4290,1.);
#4310=LINE('',#4280,#4300);
#4320=EDGE_CURVE('',#270,#1590,#4310,.T.);
#4330=ORIENTED_EDGE('',*,*,#4320,.F.);
#4340=ORIENTED_EDGE('',*,*,#1640,.T.);
#4350=CARTESIAN_POINT('',(31.75,5.,-342.));
#4360=DIRECTION('',(0.,0.,1.));
#4370=VECTOR('',#4360,1.);
#4380=LINE('',#4350,#4370);
#4390=EDGE_CURVE('',#290,#1610,#4380,.T.);
#4400=ORIENTED_EDGE('',*,*,#4390,.T.);
#4410=ORIENTED_EDGE('',*,*,#320,.F.);
#4420=EDGE_LOOP('',(#4410,#4400,#4340,#4330));
#4430=FACE_OUTER_BOUND('',#4420,.T.);
#4440=ADVANCED_FACE('',(#4430),#4270,.F.);
#4450=CARTESIAN_POINT('',(5.,5.,-342.));
#4460=DIRECTION('',(0.,0.,1.));
#4470=DIRECTION('',(1.,0.,0.));
#4480=AXIS2_PLACEMENT_3D('',#4450,#4460,#4470);
#4490=CYLINDRICAL_SURFACE('',#4480,3.25);
#4500=CARTESIAN_POINT('',(8.25,5.,-342.));
#4510=DIRECTION('',(0.,0.,1.));
#4520=VECTOR('',#4510,1.);
#4530=LINE('',#4500,#4520);
#4540=EDGE_CURVE('',#420,#1740,#4530,.T.);
#4550=ORIENTED_EDGE('',*,*,#4540,.F.);
#4560=ORIENTED_EDGE('',*,*,#1790,.T.);
#4570=CARTESIAN_POINT('',(1.75,5.,-342.));
#4580=DIRECTION('',(0.,0.,1.));
#4590=VECTOR('',#4580,1.);
#4600=LINE('',#4570,#4590);
#4610=EDGE_CURVE('',#440,#1760,#4600,.T.);
#4620=ORIENTED_EDGE('',*,*,#4610,.T.);
#4630=ORIENTED_EDGE('',*,*,#470,.F.);
#4640=EDGE_LOOP('',(#4630,#4620,#4560,#4550));
#4650=FACE_OUTER_BOUND('',#4640,.T.);
#4660=ADVANCED_FACE('',(#4650),#4490,.F.);
#4670=CARTESIAN_POINT('',(5.,35.,-342.));
#4680=DIRECTION('',(0.,0.,1.));
#4690=DIRECTION('',(1.,0.,0.));
#4700=AXIS2_PLACEMENT_3D('',#4670,#4680,#4690);
#4710=CYLINDRICAL_SURFACE('',#4700,3.25);
#4720=CARTESIAN_POINT('',(8.25,35.,-342.));
#4730=DIRECTION('',(0.,0.,1.));
#4740=VECTOR('',#4730,1.);
#4750=LINE('',#4720,#4740);
#4760=EDGE_CURVE('',#570,#1890,#4750,.T.);
#4770=ORIENTED_EDGE('',*,*,#4760,.F.);
#4780=ORIENTED_EDGE('',*,*,#1940,.T.);
#4790=CARTESIAN_POINT('',(1.75,35.,-342.));
#4800=DIRECTION('',(0.,0.,1.));
#4810=VECTOR('',#4800,1.);
#4820=LINE('',#4790,#4810);
#4830=EDGE_CURVE('',#590,#1910,#4820,.T.);
#4840=ORIENTED_EDGE('',*,*,#4830,.T.);
#4850=ORIENTED_EDGE('',*,*,#620,.F.);
#4860=EDGE_LOOP('',(#4850,#4840,#4780,#4770));
#4870=FACE_OUTER_BOUND('',#4860,.T.);
#4880=ADVANCED_FACE('',(#4870),#4710,.F.);
#4890=CARTESIAN_POINT('',(5.,5.,-342.));
#4900=DIRECTION('',(0.,0.,1.));
#4910=DIRECTION('',(1.,0.,0.));
#4920=AXIS2_PLACEMENT_3D('',#4890,#4900,#4910);
#4930=CYLINDRICAL_SURFACE('',#4920,3.25);
#4940=ORIENTED_EDGE('',*,*,#450,.F.);
#4950=ORIENTED_EDGE('',*,*,#4610,.F.);
#4960=ORIENTED_EDGE('',*,*,#1770,.T.);
#4970=ORIENTED_EDGE('',*,*,#4540,.T.);
#4980=EDGE_LOOP('',(#4970,#4960,#4950,#4940));
#4990=FACE_OUTER_BOUND('',#4980,.T.);
#5000=ADVANCED_FACE('',(#4990),#4930,.F.);
#5010=CARTESIAN_POINT('',(5.,35.,-342.));
#5020=DIRECTION('',(0.,0.,1.));
#5030=DIRECTION('',(1.,0.,0.));
#5040=AXIS2_PLACEMENT_3D('',#5010,#5020,#5030);
#5050=CYLINDRICAL_SURFACE('',#5040,3.25);
#5060=ORIENTED_EDGE('',*,*,#600,.F.);
#5070=ORIENTED_EDGE('',*,*,#4830,.F.);
#5080=ORIENTED_EDGE('',*,*,#1920,.T.);
#5090=ORIENTED_EDGE('',*,*,#4760,.T.);
#5100=EDGE_LOOP('',(#5090,#5080,#5070,#5060));
#5110=FACE_OUTER_BOUND('',#5100,.T.);
#5120=ADVANCED_FACE('',(#5110),#5050,.F.);
#5130=CARTESIAN_POINT('',(35.,35.,-342.));
#5140=DIRECTION('',(0.,0.,1.));
#5150=DIRECTION('',(1.,0.,0.));
#5160=AXIS2_PLACEMENT_3D('',#5130,#5140,#5150);
#5170=CYLINDRICAL_SURFACE('',#5160,3.25);
#5180=ORIENTED_EDGE('',*,*,#150,.F.);
#5190=ORIENTED_EDGE('',*,*,#4170,.F.);
#5200=ORIENTED_EDGE('',*,*,#1470,.T.);
#5210=ORIENTED_EDGE('',*,*,#4100,.T.);
#5220=EDGE_LOOP('',(#5210,#5200,#5190,#5180));
#5230=FACE_OUTER_BOUND('',#5220,.T.);
#5240=ADVANCED_FACE('',(#5230),#5170,.F.);
#5250=CARTESIAN_POINT('',(35.,5.,-342.));
#5260=DIRECTION('',(0.,0.,1.));
#5270=DIRECTION('',(1.,0.,0.));
#5280=AXIS2_PLACEMENT_3D('',#5250,#5260,#5270);
#5290=CYLINDRICAL_SURFACE('',#5280,3.25);
#5300=ORIENTED_EDGE('',*,*,#300,.F.);
#5310=ORIENTED_EDGE('',*,*,#4390,.F.);
#5320=ORIENTED_EDGE('',*,*,#1620,.T.);
#5330=ORIENTED_EDGE('',*,*,#4320,.T.);
#5340=EDGE_LOOP('',(#5330,#5320,#5310,#5300));
#5350=FACE_OUTER_BOUND('',#5340,.T.);
#5360=ADVANCED_FACE('',(#5350),#5290,.F.);
#5370=CLOSED_SHELL('',(#2860,#3080,#3300,#3520,#3640,#3760,#3880,#4000,
#4220,#4440,#4660,#4880,#5000,#5120,#5240,#5360,#2640,#1320));
#5380=MANIFOLD_SOLID_BREP('',#5370);
#5390=CARTESIAN_POINT('',(0.,0.,0.));
#5400=DIRECTION('',(0.,0.,1.));
#5410=DIRECTION('',(1.,0.,0.));
#5420=AXIS2_PLACEMENT_3D('',#5390,#5400,#5410);
#5430=APPLICATION_CONTEXT(' ');
#5440=APPLICATION_PROTOCOL_DEFINITION(' ','automotive_design',1998,#5430
);
#5450=PRODUCT_CONTEXT('',#5430,'mechanical');
#5460=PRODUCT_DEFINITION_CONTEXT('part definition',#5430,'design');
#5470=PRODUCT('Abschlussplatte-MMS-44_40x40x8_44.0370_PX175566',
'Abschlussplatte-MMS-44_40x40x8_44.0370_PX175566','',(#5450));
#5480=PRODUCT_RELATED_PRODUCT_CATEGORY('part',' ',(#5470));
#5490=PRODUCT_DEFINITION_FORMATION_WITH_SPECIFIED_SOURCE('','',#5470,
.BOUGHT.);
#5500=PRODUCT_DEFINITION('',' ',#5490,#5460);
#5510=PRODUCT_DEFINITION_SHAPE('','',#5500);
#5520=DIMENSIONAL_EXPONENTS(1.,0.,0.,0.,0.,0.,0.);
#5530=DIMENSIONAL_EXPONENTS(0.,0.,0.,0.,0.,0.,0.);
#5540=DIMENSIONAL_EXPONENTS(0.,0.,0.,0.,0.,0.,0.);
#5550=(LENGTH_UNIT() NAMED_UNIT(*) SI_UNIT(.MILLI.,.METRE.));
#5560=(NAMED_UNIT(*) PLANE_ANGLE_UNIT() SI_UNIT($,.RADIAN.));
#5570=(NAMED_UNIT(*) SI_UNIT($,.STERADIAN.) SOLID_ANGLE_UNIT());
#5580=(GEOMETRIC_REPRESENTATION_CONTEXT(3) 
GLOBAL_UNCERTAINTY_ASSIGNED_CONTEXT((#5590)) 
GLOBAL_UNIT_ASSIGNED_CONTEXT((#5550,#5560,#5570)) REPRESENTATION_CONTEXT
('',''));
#5590=UNCERTAINTY_MEASURE_WITH_UNIT(LENGTH_MEASURE(1.E-6),#5550,
'distance_accuracy_value','maximum gap value');
#5600=ADVANCED_BREP_SHAPE_REPRESENTATION('',(#5420,#5380),#5580);
#5610=SHAPE_DEFINITION_REPRESENTATION(#5510,#5600);
#5620=COLOUR_RGB('',0.690196096897125,0.886274576187134,1.);
#5630=FILL_AREA_STYLE_COLOUR('',#5620);
#5640=FILL_AREA_STYLE('',(#5630));
#5650=SURFACE_STYLE_FILL_AREA(#5640);
#5660=SURFACE_SIDE_STYLE('',(#5650));
#5670=SURFACE_STYLE_USAGE(.BOTH.,#5660);
#5680=PRESENTATION_STYLE_ASSIGNMENT((#5670));
#5690=STYLED_ITEM('',(#5680),#5380);
#5700=DRAUGHTING_MODEL('',(#5690),#5580);
#5710=CARTESIAN_POINT('',(58.9,0.,0.));
#5720=DIRECTION('',(0.,0.,1.));
#5730=DIRECTION('',(1.,0.,0.));
#5740=AXIS2_PLACEMENT_3D('',#5710,#5720,#5730);
#5750=ITEM_DEFINED_TRANSFORMATION(
'Abschlussplatte-MMS-44_40x40x8_44.0370_PX175566','',#5420,#5740);
#5760=APPLICATION_CONTEXT(' ');
#5770=APPLICATION_PROTOCOL_DEFINITION(' ','automotive_design',1998,#5760
);
#5780=PRODUCT_CONTEXT('',#5760,'mechanical');
#5790=PRODUCT_DEFINITION_CONTEXT('part definition',#5760,'design');
#5800=PRODUCT('Abschlussplatte-MMS-44_40x40x8_44.0370_PX175566',
'Abschlussplatte-MMS-44_40x40x8_44.0370_PX175566','',(#5780));
#5810=PRODUCT_RELATED_PRODUCT_CATEGORY('part',' ',(#5800));
#5820=PRODUCT_DEFINITION_FORMATION_WITH_SPECIFIED_SOURCE('','',#5800,
.BOUGHT.);
#5830=PRODUCT_DEFINITION('',' ',#5820,#5790);
#5840=PRODUCT_DEFINITION_SHAPE('','',#5830);
#5850=DIMENSIONAL_EXPONENTS(1.,0.,0.,0.,0.,0.,0.);
#5860=DIMENSIONAL_EXPONENTS(0.,0.,0.,0.,0.,0.,0.);
#5870=DIMENSIONAL_EXPONENTS(0.,0.,0.,0.,0.,0.,0.);
#5880=(LENGTH_UNIT() NAMED_UNIT(*) SI_UNIT(.MILLI.,.METRE.));
#5890=(NAMED_UNIT(*) PLANE_ANGLE_UNIT() SI_UNIT($,.RADIAN.));
#5900=(NAMED_UNIT(*) SI_UNIT($,.STERADIAN.) SOLID_ANGLE_UNIT());
#5910=(GEOMETRIC_REPRESENTATION_CONTEXT(3) 
GLOBAL_UNCERTAINTY_ASSIGNED_CONTEXT((#5920)) 
GLOBAL_UNIT_ASSIGNED_CONTEXT((#5880,#5890,#5900)) REPRESENTATION_CONTEXT
('',''));
#5920=UNCERTAINTY_MEASURE_WITH_UNIT(LENGTH_MEASURE(1.E-6),#5880,
'distance_accuracy_value','maximum gap value');
#5930=SHAPE_REPRESENTATION('',(#5420,#5740),#5910);
#5940=SHAPE_DEFINITION_REPRESENTATION(#5840,#5930);
#5950=(REPRESENTATION_RELATIONSHIP('','',#5600,#5930) 
REPRESENTATION_RELATIONSHIP_WITH_TRANSFORMATION(#5750) 
SHAPE_REPRESENTATION_RELATIONSHIP());
#5960=NEXT_ASSEMBLY_USAGE_OCCURRENCE('1','',
'Abschlussplatte-MMS-44_40x40x8_44.0370_PX175566',#5830,#5500,'');
#5970=PRODUCT_DEFINITION_SHAPE('','',#5960);
#5980=CONTEXT_DEPENDENT_SHAPE_REPRESENTATION(#5950,#5970);
ENDSEC;
END-ISO-10303-21;
