ISO-10303-21;
HEADER;
FILE_DESCRIPTION(('Creo Elements/Direct Modeling STEP Export'),'2;1');
FILE_NAME(
'//KR-CAD2/PhoenixTemp/karl.letzgus/Konvertierung/44.0513_Sperrzahnschra
ube_M8x14-aehnlich-DIN912.stp','2022-03-21T 8:58:25',(''),(''),
'PTC Creo Elements/Direct Modeling STEP processor for AP214 (Solid Model
)',
'PTC Creo Elements/Direct Modeling 19.0C  15-Aug-2015 (C) Parametric Tec
hnology GmbH','');
FILE_SCHEMA(('AUTOMOTIVE_DESIGN { 1 0 10303 214 1 1 1 1 }'));
ENDSEC;
DATA;
#10=CARTESIAN_POINT('',(0.,1.7,14.));
#20=DIRECTION('',(-0.,0.,1.));
#30=DIRECTION('',(0.,-1.,0.));
#40=AXIS2_PLACEMENT_3D('',#10,#20,#30);
#50=PLANE('',#40);
#60=CARTESIAN_POINT('',(0.,0.,14.));
#70=DIRECTION('',(0.,0.,1.));
#80=DIRECTION('',(0.,-1.,0.));
#90=AXIS2_PLACEMENT_3D('',#60,#70,#80);
#100=CIRCLE('',#90,3.4);
#110=CARTESIAN_POINT('',(4.163799117101E-16,-3.4,14.));
#120=VERTEX_POINT('',#110);
#130=CARTESIAN_POINT('',(0.,3.4,14.));
#140=VERTEX_POINT('',#130);
#150=EDGE_CURVE('',#120,#140,#100,.T.);
#160=ORIENTED_EDGE('',*,*,#150,.T.);
#170=EDGE_CURVE('',#140,#120,#100,.T.);
#180=ORIENTED_EDGE('',*,*,#170,.T.);
#190=EDGE_LOOP('',(#180,#160));
#200=FACE_OUTER_BOUND('',#190,.T.);
#210=ADVANCED_FACE('',(#200),#50,.T.);
#220=CARTESIAN_POINT('',(1.73205080756886,2.99999999999992,-8.));
#230=DIRECTION('',(3.84592537276713E-16,-1.,0.));
#240=DIRECTION('',(1.,3.84592537276713E-16,0.));
#250=AXIS2_PLACEMENT_3D('',#220,#230,#240);
#260=PLANE('',#250);
#270=CARTESIAN_POINT('',(-1.7320508075688,2.99999999999997,-8.));
#280=DIRECTION('',(0.,0.,1.));
#290=VECTOR('',#280,1.);
#300=LINE('',#270,#290);
#310=CARTESIAN_POINT('',(-1.7320508075688,2.99999999999991,-8.));
#320=VERTEX_POINT('',#310);
#330=CARTESIAN_POINT('',(-1.7320508075688,2.99999999999997,-4.));
#340=VERTEX_POINT('',#330);
#350=EDGE_CURVE('',#320,#340,#300,.T.);
#360=ORIENTED_EDGE('',*,*,#350,.F.);
#370=CARTESIAN_POINT('',(7.8159700933611E-14,2.99999999999997,-4.));
#380=DIRECTION('',(-1.,-3.84592537276713E-16,0.));
#390=VECTOR('',#380,1.);
#400=LINE('',#370,#390);
#410=CARTESIAN_POINT('',(1.73205080756886,2.99999999999992,-4.));
#420=VERTEX_POINT('',#410);
#430=EDGE_CURVE('',#420,#340,#400,.T.);
#440=ORIENTED_EDGE('',*,*,#430,.T.);
#450=CARTESIAN_POINT('',(1.73205080756886,2.99999999999992,-8.));
#460=DIRECTION('',(0.,0.,1.));
#470=VECTOR('',#460,1.);
#480=LINE('',#450,#470);
#490=CARTESIAN_POINT('',(1.73205080756886,2.99999999999992,-8.));
#500=VERTEX_POINT('',#490);
#510=EDGE_CURVE('',#500,#420,#480,.T.);
#520=ORIENTED_EDGE('',*,*,#510,.T.);
#530=CARTESIAN_POINT('',(0.,2.99999999999992,-8.));
#540=DIRECTION('',(1.,3.84592537276713E-16,0.));
#550=VECTOR('',#540,1.);
#560=LINE('',#530,#550);
#570=EDGE_CURVE('',#320,#500,#560,.T.);
#580=ORIENTED_EDGE('',*,*,#570,.T.);
#590=EDGE_LOOP('',(#580,#520,#440,#360));
#600=FACE_OUTER_BOUND('',#590,.T.);
#610=ADVANCED_FACE('',(#600),#260,.T.);
#620=CARTESIAN_POINT('',(0.,0.,5.7));
#630=DIRECTION('',(0.,0.,1.));
#640=DIRECTION('',(0.,-1.,0.));
#650=AXIS2_PLACEMENT_3D('',#620,#630,#640);
#660=CYLINDRICAL_SURFACE('',#650,4.);
#670=CARTESIAN_POINT('',(4.89858719658941E-16,4.,5.7));
#680=DIRECTION('',(0.,0.,1.));
#690=VECTOR('',#680,1.);
#700=LINE('',#670,#690);
#710=CARTESIAN_POINT('',(4.89858719658941E-16,4.,0.));
#720=VERTEX_POINT('',#710);
#730=CARTESIAN_POINT('',(4.89858719658941E-16,4.,13.6535898384862));
#740=VERTEX_POINT('',#730);
#750=EDGE_CURVE('',#720,#740,#700,.T.);
#760=ORIENTED_EDGE('',*,*,#750,.F.);
#770=CARTESIAN_POINT('',(0.,0.,13.6535898384862));
#780=DIRECTION('',(0.,0.,1.));
#790=DIRECTION('',(0.,-1.,0.));
#800=AXIS2_PLACEMENT_3D('',#770,#780,#790);
#810=CIRCLE('',#800,4.);
#820=CARTESIAN_POINT('',(0.,-4.,13.6535898384862));
#830=VERTEX_POINT('',#820);
#840=EDGE_CURVE('',#740,#830,#810,.T.);
#850=ORIENTED_EDGE('',*,*,#840,.F.);
#860=CARTESIAN_POINT('',(0.,-4.,5.7));
#870=DIRECTION('',(0.,0.,1.));
#880=VECTOR('',#870,1.);
#890=LINE('',#860,#880);
#900=CARTESIAN_POINT('',(0.,-4.,0.));
#910=VERTEX_POINT('',#900);
#920=EDGE_CURVE('',#910,#830,#890,.T.);
#930=ORIENTED_EDGE('',*,*,#920,.T.);
#940=CARTESIAN_POINT('',(0.,0.,0.));
#950=DIRECTION('',(0.,0.,1.));
#960=DIRECTION('',(0.,-1.,0.));
#970=AXIS2_PLACEMENT_3D('',#940,#950,#960);
#980=CIRCLE('',#970,4.);
#990=EDGE_CURVE('',#720,#910,#980,.T.);
#1000=ORIENTED_EDGE('',*,*,#990,.T.);
#1010=EDGE_LOOP('',(#1000,#930,#850,#760));
#1020=FACE_OUTER_BOUND('',#1010,.T.);
#1030=ADVANCED_FACE('',(#1020),#660,.T.);
#1040=COLOUR_RGB('',1.,0.,0.);
#1050=FILL_AREA_STYLE_COLOUR('',#1040);
#1060=FILL_AREA_STYLE('',(#1050));
#1070=SURFACE_STYLE_FILL_AREA(#1060);
#1080=SURFACE_SIDE_STYLE('',(#1070));
#1090=SURFACE_STYLE_USAGE(.BOTH.,#1080);
#1100=PRESENTATION_STYLE_ASSIGNMENT((#1090));
#1110=CARTESIAN_POINT('',(0.,5.25,0.));
#1120=DIRECTION('',(-0.,0.,1.));
#1130=DIRECTION('',(0.,-1.,0.));
#1140=AXIS2_PLACEMENT_3D('',#1110,#1120,#1130);
#1150=PLANE('',#1140);
#1160=EDGE_CURVE('',#910,#720,#980,.T.);
#1170=ORIENTED_EDGE('',*,*,#1160,.F.);
#1180=ORIENTED_EDGE('',*,*,#990,.F.);
#1190=EDGE_LOOP('',(#1180,#1170));
#1200=FACE_BOUND('',#1190,.T.);
#1210=CARTESIAN_POINT('',(2.44406274732532E-16,-6.30606677987089E-14,
8.5265128291212E-14));
#1220=DIRECTION('',(1.04083408558608E-17,-6.93889390390723E-18,1.));
#1230=DIRECTION('',(-1.22623265708111E-16,-1.,0.));
#1240=AXIS2_PLACEMENT_3D('',#1210,#1220,#1230);
#1250=CIRCLE('',#1240,8.35);
#1260=CARTESIAN_POINT('',(-7.79497993930192E-16,-8.35000000000007,
-5.79397640976279E-17));
#1270=VERTEX_POINT('',#1260);
#1280=CARTESIAN_POINT('',(2.2908906206833E-15,8.34999999999994,
8.5265128291212E-14));
#1290=VERTEX_POINT('',#1280);
#1300=EDGE_CURVE('',#1270,#1290,#1250,.T.);
#1310=ORIENTED_EDGE('',*,*,#1300,.T.);
#1320=EDGE_CURVE('',#1290,#1270,#1250,.T.);
#1330=ORIENTED_EDGE('',*,*,#1320,.T.);
#1340=EDGE_LOOP('',(#1330,#1310));
#1350=FACE_OUTER_BOUND('',#1340,.T.);
#1360=ADVANCED_FACE('',(#1200,#1350),#1150,.T.);
#1370=COLOUR_RGB('',0.65490198135376,0.196078449487686,0.243137270212173
);
#1380=FILL_AREA_STYLE_COLOUR('',#1370);
#1390=FILL_AREA_STYLE('',(#1380));
#1400=SURFACE_STYLE_FILL_AREA(#1390);
#1410=SURFACE_SIDE_STYLE('',(#1400));
#1420=SURFACE_STYLE_USAGE(.BOTH.,#1410);
#1430=PRESENTATION_STYLE_ASSIGNMENT((#1420));
#1440=CARTESIAN_POINT('',(0.,0.,-3.6));
#1450=DIRECTION('',(0.,0.,1.));
#1460=DIRECTION('',(0.,-1.,0.));
#1470=AXIS2_PLACEMENT_3D('',#1440,#1450,#1460);
#1480=CYLINDRICAL_SURFACE('',#1470,7.);
#1490=CARTESIAN_POINT('',(8.57252759403147E-16,7.,-3.6));
#1500=DIRECTION('',(0.,0.,1.));
#1510=VECTOR('',#1500,1.);
#1520=LINE('',#1490,#1510);
#1530=CARTESIAN_POINT('',(0.,7.,-5.));
#1540=VERTEX_POINT('',#1530);
#1550=CARTESIAN_POINT('',(8.57252759403147E-16,7.,-1.99999999999992));
#1560=VERTEX_POINT('',#1550);
#1570=EDGE_CURVE('',#1540,#1560,#1520,.T.);
#1580=ORIENTED_EDGE('',*,*,#1570,.F.);
#1590=CARTESIAN_POINT('',(0.,0.,-1.99999999999992));
#1600=DIRECTION('',(0.,0.,1.));
#1610=DIRECTION('',(0.,-1.,0.));
#1620=AXIS2_PLACEMENT_3D('',#1590,#1600,#1610);
#1630=CIRCLE('',#1620,7.);
#1640=CARTESIAN_POINT('',(0.,-7.,-1.99999999999992));
#1650=VERTEX_POINT('',#1640);
#1660=EDGE_CURVE('',#1560,#1650,#1630,.T.);
#1670=ORIENTED_EDGE('',*,*,#1660,.F.);
#1680=CARTESIAN_POINT('',(0.,-7.,-3.6));
#1690=DIRECTION('',(0.,0.,1.));
#1700=VECTOR('',#1690,1.);
#1710=LINE('',#1680,#1700);
#1720=CARTESIAN_POINT('',(0.,-7.,-5.));
#1730=VERTEX_POINT('',#1720);
#1740=EDGE_CURVE('',#1730,#1650,#1710,.T.);
#1750=ORIENTED_EDGE('',*,*,#1740,.T.);
#1760=CARTESIAN_POINT('',(0.,0.,-5.));
#1770=DIRECTION('',(0.,0.,1.));
#1780=DIRECTION('',(0.,-1.,0.));
#1790=AXIS2_PLACEMENT_3D('',#1760,#1770,#1780);
#1800=CIRCLE('',#1790,7.);
#1810=EDGE_CURVE('',#1540,#1730,#1800,.T.);
#1820=ORIENTED_EDGE('',*,*,#1810,.T.);
#1830=EDGE_LOOP('',(#1820,#1750,#1670,#1580));
#1840=FACE_OUTER_BOUND('',#1830,.T.);
#1850=ADVANCED_FACE('',(#1840),#1480,.T.);
#1860=CARTESIAN_POINT('',(2.44406274732532E-16,-6.30606677987089E-14,
8.5265128291212E-14));
#1870=DIRECTION('',(1.04083408558608E-17,-6.93889390390723E-18,1.));
#1880=DIRECTION('',(-1.22623265708111E-16,-1.,0.));
#1890=AXIS2_PLACEMENT_3D('',#1860,#1870,#1880);
#1900=CYLINDRICAL_SURFACE('',#1890,8.35);
#1910=CARTESIAN_POINT('',(2.2908906206833E-15,8.34999999999994,
8.5265128291212E-14));
#1920=DIRECTION('',(1.04083408558608E-17,-6.93889390390722E-18,1.));
#1930=VECTOR('',#1920,1.);
#1940=LINE('',#1910,#1930);
#1950=CARTESIAN_POINT('',(2.27007393897158E-15,8.34999999999994,
-1.99999999999992));
#1960=VERTEX_POINT('',#1950);
#1970=EDGE_CURVE('',#1960,#1290,#1940,.T.);
#1980=ORIENTED_EDGE('',*,*,#1970,.F.);
#1990=ORIENTED_EDGE('',*,*,#1320,.F.);
#2000=CARTESIAN_POINT('',(-7.79497993930191E-16,-8.35000000000007,
8.5265128291212E-14));
#2010=DIRECTION('',(1.04083408558608E-17,-6.93889390390722E-18,1.));
#2020=VECTOR('',#2010,1.);
#2030=LINE('',#2000,#2020);
#2040=CARTESIAN_POINT('',(-8.00314675641913E-16,-8.35000000000007,
-1.99999999999992));
#2050=VERTEX_POINT('',#2040);
#2060=EDGE_CURVE('',#2050,#1270,#2030,.T.);
#2070=ORIENTED_EDGE('',*,*,#2060,.T.);
#2080=CARTESIAN_POINT('',(2.44406274732532E-16,-6.30606677987089E-14,
-1.99999999999992));
#2090=DIRECTION('',(1.04083408558608E-17,-6.93889390390723E-18,1.));
#2100=DIRECTION('',(-1.22623265708111E-16,-1.,0.));
#2110=AXIS2_PLACEMENT_3D('',#2080,#2090,#2100);
#2120=CIRCLE('',#2110,8.35);
#2130=EDGE_CURVE('',#1960,#2050,#2120,.T.);
#2140=ORIENTED_EDGE('',*,*,#2130,.T.);
#2150=EDGE_LOOP('',(#2140,#2070,#1990,#1980));
#2160=FACE_OUTER_BOUND('',#2150,.T.);
#2170=ADVANCED_FACE('',(#2160),#1900,.T.);
#2180=CARTESIAN_POINT('',(1.13686837721616E-13,5.24999999999983,
-1.99999999999992));
#2190=DIRECTION('',(2.08166817117217E-17,-2.55260949269761E-33,1.));
#2200=DIRECTION('',(-1.22623265708111E-16,-1.,0.));
#2210=AXIS2_PLACEMENT_3D('',#2180,#2190,#2200);
#2220=PLANE('',#2210);
#2230=EDGE_CURVE('',#1650,#1560,#1630,.T.);
#2240=ORIENTED_EDGE('',*,*,#2230,.T.);
#2250=ORIENTED_EDGE('',*,*,#1660,.T.);
#2260=EDGE_LOOP('',(#2250,#2240));
#2270=FACE_BOUND('',#2260,.T.);
#2280=EDGE_CURVE('',#2050,#1960,#2120,.T.);
#2290=ORIENTED_EDGE('',*,*,#2280,.F.);
#2300=ORIENTED_EDGE('',*,*,#2130,.F.);
#2310=EDGE_LOOP('',(#2300,#2290));
#2320=FACE_OUTER_BOUND('',#2310,.T.);
#2330=ADVANCED_FACE('',(#2270,#2320),#2220,.F.);
#2340=CARTESIAN_POINT('',(0.,0.,-5.));
#2350=DIRECTION('',(0.,0.,1.));
#2360=DIRECTION('',(0.,-1.,0.));
#2370=AXIS2_PLACEMENT_3D('',#2340,#2350,#2360);
#2380=TOROIDAL_SURFACE('',#2370,4.,3.);
#2390=CARTESIAN_POINT('',(0.,-4.,-5.));
#2400=DIRECTION('',(1.,0.,0.));
#2410=DIRECTION('',(0.,0.,-1.));
#2420=AXIS2_PLACEMENT_3D('',#2390,#2400,#2410);
#2430=CIRCLE('',#2420,3.);
#2440=CARTESIAN_POINT('',(0.,-4.,-8.));
#2450=VERTEX_POINT('',#2440);
#2460=EDGE_CURVE('',#1730,#2450,#2430,.T.);
#2470=ORIENTED_EDGE('',*,*,#2460,.F.);
#2480=CARTESIAN_POINT('',(0.,0.,-8.));
#2490=DIRECTION('',(0.,0.,1.));
#2500=DIRECTION('',(0.,-1.,0.));
#2510=AXIS2_PLACEMENT_3D('',#2480,#2490,#2500);
#2520=CIRCLE('',#2510,4.);
#2530=CARTESIAN_POINT('',(0.,4.,-8.));
#2540=VERTEX_POINT('',#2530);
#2550=EDGE_CURVE('',#2540,#2450,#2520,.T.);
#2560=ORIENTED_EDGE('',*,*,#2550,.T.);
#2570=CARTESIAN_POINT('',(0.,4.,-5.));
#2580=DIRECTION('',(-1.,0.,0.));
#2590=DIRECTION('',(0.,0.,-1.));
#2600=AXIS2_PLACEMENT_3D('',#2570,#2580,#2590);
#2610=CIRCLE('',#2600,3.);
#2620=EDGE_CURVE('',#1540,#2540,#2610,.T.);
#2630=ORIENTED_EDGE('',*,*,#2620,.T.);
#2640=ORIENTED_EDGE('',*,*,#1810,.F.);
#2650=EDGE_LOOP('',(#2640,#2630,#2560,#2470));
#2660=FACE_OUTER_BOUND('',#2650,.T.);
#2670=ADVANCED_FACE('',(#2660),#2380,.T.);
#2680=CARTESIAN_POINT('',(0.,0.,-8.));
#2690=DIRECTION('',(0.,0.,1.));
#2700=DIRECTION('',(1.,0.,0.));
#2710=AXIS2_PLACEMENT_3D('',#2680,#2690,#2700);
#2720=PLANE('',#2710);
#2730=EDGE_CURVE('',#2450,#2540,#2520,.T.);
#2740=ORIENTED_EDGE('',*,*,#2730,.F.);
#2750=ORIENTED_EDGE('',*,*,#2550,.F.);
#2760=EDGE_LOOP('',(#2750,#2740));
#2770=FACE_OUTER_BOUND('',#2760,.T.);
#2780=CARTESIAN_POINT('',(3.46410161513782,0.,-8.));
#2790=DIRECTION('',(0.5,-0.866025403784439,0.));
#2800=VECTOR('',#2790,1.);
#2810=LINE('',#2780,#2800);
#2820=CARTESIAN_POINT('',(3.4641016151378,2.65220875769569E-14,-8.));
#2830=VERTEX_POINT('',#2820);
#2840=EDGE_CURVE('',#500,#2830,#2810,.T.);
#2850=ORIENTED_EDGE('',*,*,#2840,.F.);
#2860=CARTESIAN_POINT('',(3.46410161513772,0.,-8.));
#2870=DIRECTION('',(-0.5,-0.866025403784439,0.));
#2880=VECTOR('',#2870,1.);
#2890=LINE('',#2860,#2880);
#2900=CARTESIAN_POINT('',(1.73205080756883,-3.00000000000003,-8.));
#2910=VERTEX_POINT('',#2900);
#2920=EDGE_CURVE('',#2830,#2910,#2890,.T.);
#2930=ORIENTED_EDGE('',*,*,#2920,.F.);
#2940=CARTESIAN_POINT('',(-0.,-3.00000000000003,-8.));
#2950=DIRECTION('',(-1.,-3.84592537276713E-16,0.));
#2960=VECTOR('',#2950,1.);
#2970=LINE('',#2940,#2960);
#2980=CARTESIAN_POINT('',(-1.73205080756893,-3.00000000000003,-8.));
#2990=VERTEX_POINT('',#2980);
#3000=EDGE_CURVE('',#2910,#2990,#2970,.T.);
#3010=ORIENTED_EDGE('',*,*,#3000,.F.);
#3020=CARTESIAN_POINT('',(-3.46410161513782,0.,-8.));
#3030=DIRECTION('',(-0.5,0.866025403784439,0.));
#3040=VECTOR('',#3030,1.);
#3050=LINE('',#3020,#3040);
#3060=CARTESIAN_POINT('',(-3.4641016151378,-2.84312440124222E-14,-8.));
#3070=VERTEX_POINT('',#3060);
#3080=EDGE_CURVE('',#2990,#3070,#3050,.T.);
#3090=ORIENTED_EDGE('',*,*,#3080,.F.);
#3100=CARTESIAN_POINT('',(-3.46410161513766,0.,-8.));
#3110=DIRECTION('',(0.5,0.866025403784439,0.));
#3120=VECTOR('',#3110,1.);
#3130=LINE('',#3100,#3120);
#3140=EDGE_CURVE('',#3070,#320,#3130,.T.);
#3150=ORIENTED_EDGE('',*,*,#3140,.F.);
#3160=ORIENTED_EDGE('',*,*,#570,.F.);
#3170=EDGE_LOOP('',(#3160,#3150,#3090,#3010,#2930,#2850));
#3180=FACE_BOUND('',#3170,.T.);
#3190=ADVANCED_FACE('',(#2770,#3180),#2720,.F.);
#3200=CARTESIAN_POINT('',(-1.49999999999996,-2.79903810567665,-4.));
#3210=DIRECTION('',(-0.,-0.,-1.));
#3220=DIRECTION('',(0.,-1.,0.));
#3230=AXIS2_PLACEMENT_3D('',#3200,#3210,#3220);
#3240=PLANE('',#3230);
#3250=CARTESIAN_POINT('',(-3.4641016151378,-2.8421709430404E-14,-4.));
#3260=DIRECTION('',(-0.5,-0.866025403784439,0.));
#3270=VECTOR('',#3260,1.);
#3280=LINE('',#3250,#3270);
#3290=CARTESIAN_POINT('',(-3.4641016151378,-2.8421709430404E-14,-4.));
#3300=VERTEX_POINT('',#3290);
#3310=EDGE_CURVE('',#340,#3300,#3280,.T.);
#3320=ORIENTED_EDGE('',*,*,#3310,.F.);
#3330=CARTESIAN_POINT('',(-3.4641016151378,-2.8421709430404E-14,-4.));
#3340=DIRECTION('',(0.5,-0.866025403784439,0.));
#3350=VECTOR('',#3340,1.);
#3360=LINE('',#3330,#3350);
#3370=CARTESIAN_POINT('',(-1.73205080756893,-3.00000000000003,-4.));
#3380=VERTEX_POINT('',#3370);
#3390=EDGE_CURVE('',#3300,#3380,#3360,.T.);
#3400=ORIENTED_EDGE('',*,*,#3390,.F.);
#3410=CARTESIAN_POINT('',(7.8159700933611E-14,-3.00000000000003,-4.));
#3420=DIRECTION('',(1.,3.84592537276713E-16,0.));
#3430=VECTOR('',#3420,1.);
#3440=LINE('',#3410,#3430);
#3450=CARTESIAN_POINT('',(1.73205080756883,-3.00000000000003,-4.));
#3460=VERTEX_POINT('',#3450);
#3470=EDGE_CURVE('',#3380,#3460,#3440,.T.);
#3480=ORIENTED_EDGE('',*,*,#3470,.F.);
#3490=CARTESIAN_POINT('',(3.46410161513783,-2.8421709430404E-14,-4.));
#3500=DIRECTION('',(-0.5,-0.866025403784439,0.));
#3510=VECTOR('',#3500,1.);
#3520=LINE('',#3490,#3510);
#3530=CARTESIAN_POINT('',(3.4641016151378,2.66453525910038E-14,-4.));
#3540=VERTEX_POINT('',#3530);
#3550=EDGE_CURVE('',#3540,#3460,#3520,.T.);
#3560=ORIENTED_EDGE('',*,*,#3550,.T.);
#3570=CARTESIAN_POINT('',(3.4641016151377,-2.8421709430404E-14,-4.));
#3580=DIRECTION('',(-0.5,0.866025403784439,0.));
#3590=VECTOR('',#3580,1.);
#3600=LINE('',#3570,#3590);
#3610=EDGE_CURVE('',#3540,#420,#3600,.T.);
#3620=ORIENTED_EDGE('',*,*,#3610,.F.);
#3630=ORIENTED_EDGE('',*,*,#430,.F.);
#3640=EDGE_LOOP('',(#3630,#3620,#3560,#3480,#3400,#3320));
#3650=FACE_OUTER_BOUND('',#3640,.T.);
#3660=ADVANCED_FACE('',(#3650),#3240,.T.);
#3670=CARTESIAN_POINT('',(3.4641016151378,2.66453525910038E-14,-8.));
#3680=DIRECTION('',(-0.866025403784439,-0.5,0.));
#3690=DIRECTION('',(0.5,-0.866025403784439,0.));
#3700=AXIS2_PLACEMENT_3D('',#3670,#3680,#3690);
#3710=PLANE('',#3700);
#3720=ORIENTED_EDGE('',*,*,#510,.F.);
#3730=ORIENTED_EDGE('',*,*,#3610,.T.);
#3740=CARTESIAN_POINT('',(3.4641016151378,2.66453525910038E-14,-8.));
#3750=DIRECTION('',(0.,0.,1.));
#3760=VECTOR('',#3750,1.);
#3770=LINE('',#3740,#3760);
#3780=EDGE_CURVE('',#2830,#3540,#3770,.T.);
#3790=ORIENTED_EDGE('',*,*,#3780,.T.);
#3800=ORIENTED_EDGE('',*,*,#2840,.T.);
#3810=EDGE_LOOP('',(#3800,#3790,#3730,#3720));
#3820=FACE_OUTER_BOUND('',#3810,.T.);
#3830=ADVANCED_FACE('',(#3820),#3710,.T.);
#3840=CARTESIAN_POINT('',(1.73205080756883,-3.00000000000003,-8.));
#3850=DIRECTION('',(-0.866025403784439,0.5,0.));
#3860=DIRECTION('',(-0.5,-0.866025403784439,0.));
#3870=AXIS2_PLACEMENT_3D('',#3840,#3850,#3860);
#3880=PLANE('',#3870);
#3890=ORIENTED_EDGE('',*,*,#3780,.F.);
#3900=ORIENTED_EDGE('',*,*,#3550,.F.);
#3910=CARTESIAN_POINT('',(1.73205080756883,-3.00000000000003,-8.));
#3920=DIRECTION('',(0.,0.,1.));
#3930=VECTOR('',#3920,1.);
#3940=LINE('',#3910,#3930);
#3950=EDGE_CURVE('',#2910,#3460,#3940,.T.);
#3960=ORIENTED_EDGE('',*,*,#3950,.T.);
#3970=ORIENTED_EDGE('',*,*,#2920,.T.);
#3980=EDGE_LOOP('',(#3970,#3960,#3900,#3890));
#3990=FACE_OUTER_BOUND('',#3980,.T.);
#4000=ADVANCED_FACE('',(#3990),#3880,.T.);
#4010=CARTESIAN_POINT('',(-1.73205080756893,-3.00000000000003,-8.));
#4020=DIRECTION('',(-3.84592537276713E-16,1.,0.));
#4030=DIRECTION('',(-1.,-3.84592537276713E-16,0.));
#4040=AXIS2_PLACEMENT_3D('',#4010,#4020,#4030);
#4050=PLANE('',#4040);
#4060=ORIENTED_EDGE('',*,*,#3950,.F.);
#4070=ORIENTED_EDGE('',*,*,#3470,.T.);
#4080=CARTESIAN_POINT('',(-1.73205080756893,-3.00000000000003,-8.));
#4090=DIRECTION('',(0.,0.,1.));
#4100=VECTOR('',#4090,1.);
#4110=LINE('',#4080,#4100);
#4120=EDGE_CURVE('',#2990,#3380,#4110,.T.);
#4130=ORIENTED_EDGE('',*,*,#4120,.T.);
#4140=ORIENTED_EDGE('',*,*,#3000,.T.);
#4150=EDGE_LOOP('',(#4140,#4130,#4070,#4060));
#4160=FACE_OUTER_BOUND('',#4150,.T.);
#4170=ADVANCED_FACE('',(#4160),#4050,.T.);
#4180=CARTESIAN_POINT('',(-3.4641016151378,-2.8421709430404E-14,-8.));
#4190=DIRECTION('',(0.866025403784439,0.5,-0.));
#4200=DIRECTION('',(-0.5,0.866025403784439,0.));
#4210=AXIS2_PLACEMENT_3D('',#4180,#4190,#4200);
#4220=PLANE('',#4210);
#4230=ORIENTED_EDGE('',*,*,#4120,.F.);
#4240=ORIENTED_EDGE('',*,*,#3390,.T.);
#4250=CARTESIAN_POINT('',(-3.4641016151378,-2.8421709430404E-14,-8.));
#4260=DIRECTION('',(0.,0.,1.));
#4270=VECTOR('',#4260,1.);
#4280=LINE('',#4250,#4270);
#4290=EDGE_CURVE('',#3070,#3300,#4280,.T.);
#4300=ORIENTED_EDGE('',*,*,#4290,.T.);
#4310=ORIENTED_EDGE('',*,*,#3080,.T.);
#4320=EDGE_LOOP('',(#4310,#4300,#4240,#4230));
#4330=FACE_OUTER_BOUND('',#4320,.T.);
#4340=ADVANCED_FACE('',(#4330),#4220,.T.);
#4350=CARTESIAN_POINT('',(-1.7320508075688,2.99999999999997,-8.));
#4360=DIRECTION('',(0.866025403784439,-0.5,0.));
#4370=DIRECTION('',(0.5,0.866025403784439,0.));
#4380=AXIS2_PLACEMENT_3D('',#4350,#4360,#4370);
#4390=PLANE('',#4380);
#4400=ORIENTED_EDGE('',*,*,#4290,.F.);
#4410=ORIENTED_EDGE('',*,*,#3310,.T.);
#4420=ORIENTED_EDGE('',*,*,#350,.T.);
#4430=ORIENTED_EDGE('',*,*,#3140,.T.);
#4440=EDGE_LOOP('',(#4430,#4420,#4410,#4400));
#4450=FACE_OUTER_BOUND('',#4440,.T.);
#4460=ADVANCED_FACE('',(#4450),#4390,.T.);
#4470=CARTESIAN_POINT('',(0.,0.,14.));
#4480=DIRECTION('',(0.,0.,-1.));
#4490=DIRECTION('',(0.,1.,0.));
#4500=AXIS2_PLACEMENT_3D('',#4470,#4480,#4490);
#4510=CONICAL_SURFACE('',#4500,3.4,1.0471975511966);
#4520=CARTESIAN_POINT('',(4.163799117101E-16,-3.4,14.));
#4530=DIRECTION('',(1.06057523872491E-16,-0.866025403784439,-0.5));
#4540=VECTOR('',#4530,3.92598183048946);
#4550=LINE('',#4520,#4540);
#4560=EDGE_CURVE('',#120,#830,#4550,.T.);
#4570=ORIENTED_EDGE('',*,*,#4560,.F.);
#4580=ORIENTED_EDGE('',*,*,#840,.T.);
#4590=CARTESIAN_POINT('',(0.,3.4,14.));
#4600=DIRECTION('',(0.,0.866025403784439,-0.5));
#4610=VECTOR('',#4600,3.92598183048946);
#4620=LINE('',#4590,#4610);
#4630=EDGE_CURVE('',#140,#740,#4620,.T.);
#4640=ORIENTED_EDGE('',*,*,#4630,.T.);
#4650=ORIENTED_EDGE('',*,*,#170,.F.);
#4660=EDGE_LOOP('',(#4650,#4640,#4580,#4570));
#4670=FACE_OUTER_BOUND('',#4660,.T.);
#4680=ADVANCED_FACE('',(#4670),#4510,.T.);
#4690=CARTESIAN_POINT('',(0.,0.,5.7));
#4700=DIRECTION('',(0.,0.,1.));
#4710=DIRECTION('',(0.,-1.,0.));
#4720=AXIS2_PLACEMENT_3D('',#4690,#4700,#4710);
#4730=CYLINDRICAL_SURFACE('',#4720,4.);
#4740=EDGE_CURVE('',#830,#740,#810,.T.);
#4750=ORIENTED_EDGE('',*,*,#4740,.F.);
#4760=ORIENTED_EDGE('',*,*,#750,.T.);
#4770=ORIENTED_EDGE('',*,*,#1160,.T.);
#4780=ORIENTED_EDGE('',*,*,#920,.F.);
#4790=EDGE_LOOP('',(#4780,#4770,#4760,#4750));
#4800=FACE_OUTER_BOUND('',#4790,.T.);
#4810=ADVANCED_FACE('',(#4800),#4730,.T.);
#4820=COLOUR_RGB('',1.,0.,0.);
#4830=FILL_AREA_STYLE_COLOUR('',#4820);
#4840=FILL_AREA_STYLE('',(#4830));
#4850=SURFACE_STYLE_FILL_AREA(#4840);
#4860=SURFACE_SIDE_STYLE('',(#4850));
#4870=SURFACE_STYLE_USAGE(.BOTH.,#4860);
#4880=PRESENTATION_STYLE_ASSIGNMENT((#4870));
#4890=CARTESIAN_POINT('',(0.,0.,14.));
#4900=DIRECTION('',(0.,0.,-1.));
#4910=DIRECTION('',(0.,1.,0.));
#4920=AXIS2_PLACEMENT_3D('',#4890,#4900,#4910);
#4930=CONICAL_SURFACE('',#4920,3.4,1.0471975511966);
#4940=ORIENTED_EDGE('',*,*,#4740,.T.);
#4950=ORIENTED_EDGE('',*,*,#4560,.T.);
#4960=ORIENTED_EDGE('',*,*,#150,.F.);
#4970=ORIENTED_EDGE('',*,*,#4630,.F.);
#4980=EDGE_LOOP('',(#4970,#4960,#4950,#4940));
#4990=FACE_OUTER_BOUND('',#4980,.T.);
#5000=ADVANCED_FACE('',(#4990),#4930,.T.);
#5010=CARTESIAN_POINT('',(2.44406274732532E-16,-6.30606677987089E-14,
8.5265128291212E-14));
#5020=DIRECTION('',(1.04083408558608E-17,-6.93889390390723E-18,1.));
#5030=DIRECTION('',(-1.22623265708111E-16,-1.,0.));
#5040=AXIS2_PLACEMENT_3D('',#5010,#5020,#5030);
#5050=CYLINDRICAL_SURFACE('',#5040,8.35);
#5060=ORIENTED_EDGE('',*,*,#1300,.F.);
#5070=ORIENTED_EDGE('',*,*,#1970,.T.);
#5080=ORIENTED_EDGE('',*,*,#2280,.T.);
#5090=ORIENTED_EDGE('',*,*,#2060,.F.);
#5100=EDGE_LOOP('',(#5090,#5080,#5070,#5060));
#5110=FACE_OUTER_BOUND('',#5100,.T.);
#5120=ADVANCED_FACE('',(#5110),#5050,.T.);
#5130=CARTESIAN_POINT('',(0.,0.,-3.6));
#5140=DIRECTION('',(0.,0.,1.));
#5150=DIRECTION('',(0.,-1.,0.));
#5160=AXIS2_PLACEMENT_3D('',#5130,#5140,#5150);
#5170=CYLINDRICAL_SURFACE('',#5160,7.);
#5180=ORIENTED_EDGE('',*,*,#2230,.F.);
#5190=ORIENTED_EDGE('',*,*,#1570,.T.);
#5200=EDGE_CURVE('',#1730,#1540,#1800,.T.);
#5210=ORIENTED_EDGE('',*,*,#5200,.T.);
#5220=ORIENTED_EDGE('',*,*,#1740,.F.);
#5230=EDGE_LOOP('',(#5220,#5210,#5190,#5180));
#5240=FACE_OUTER_BOUND('',#5230,.T.);
#5250=ADVANCED_FACE('',(#5240),#5170,.T.);
#5260=CARTESIAN_POINT('',(0.,0.,-5.));
#5270=DIRECTION('',(0.,0.,1.));
#5280=DIRECTION('',(0.,-1.,0.));
#5290=AXIS2_PLACEMENT_3D('',#5260,#5270,#5280);
#5300=TOROIDAL_SURFACE('',#5290,4.,3.);
#5310=ORIENTED_EDGE('',*,*,#5200,.F.);
#5320=ORIENTED_EDGE('',*,*,#2620,.F.);
#5330=ORIENTED_EDGE('',*,*,#2730,.T.);
#5340=ORIENTED_EDGE('',*,*,#2460,.T.);
#5350=EDGE_LOOP('',(#5340,#5330,#5320,#5310));
#5360=FACE_OUTER_BOUND('',#5350,.T.);
#5370=ADVANCED_FACE('',(#5360),#5300,.T.);
#5380=CLOSED_SHELL('',(#210,#610,#1030,#1360,#1850,#2170,#2330,#2670,
#3190,#3660,#3830,#4000,#4170,#4340,#4460,#4680,#4810,#5000,#5120,#5250,
#5370));
#5390=MANIFOLD_SOLID_BREP('',#5380);
#5400=CARTESIAN_POINT('',(0.,0.,0.));
#5410=DIRECTION('',(0.,0.,1.));
#5420=DIRECTION('',(1.,0.,0.));
#5430=AXIS2_PLACEMENT_3D('',#5400,#5410,#5420);
#5440=APPLICATION_CONTEXT(' ');
#5450=APPLICATION_PROTOCOL_DEFINITION(' ','automotive_design',1998,#5440
);
#5460=PRODUCT_CONTEXT('',#5440,'mechanical');
#5470=PRODUCT_DEFINITION_CONTEXT('part definition',#5440,'design');
#5480=PRODUCT('Sperrzahnschraube_M8x14-aehnlich-DIN912_44.0513_PX173491'
,'Sperrzahnschraube_M8x14-aehnlich-DIN912_44.0513_PX173491','',(#5460));
#5490=PRODUCT_RELATED_PRODUCT_CATEGORY('part',' ',(#5480));
#5500=PRODUCT_DEFINITION_FORMATION_WITH_SPECIFIED_SOURCE('','',#5480,
.BOUGHT.);
#5510=PRODUCT_DEFINITION('',' ',#5500,#5470);
#5520=PRODUCT_DEFINITION_SHAPE('','',#5510);
#5530=DIMENSIONAL_EXPONENTS(1.,0.,0.,0.,0.,0.,0.);
#5540=DIMENSIONAL_EXPONENTS(0.,0.,0.,0.,0.,0.,0.);
#5550=DIMENSIONAL_EXPONENTS(0.,0.,0.,0.,0.,0.,0.);
#5560=(LENGTH_UNIT() NAMED_UNIT(*) SI_UNIT(.MILLI.,.METRE.));
#5570=(NAMED_UNIT(*) PLANE_ANGLE_UNIT() SI_UNIT($,.RADIAN.));
#5580=(NAMED_UNIT(*) SI_UNIT($,.STERADIAN.) SOLID_ANGLE_UNIT());
#5590=(GEOMETRIC_REPRESENTATION_CONTEXT(3) 
GLOBAL_UNCERTAINTY_ASSIGNED_CONTEXT((#5600)) 
GLOBAL_UNIT_ASSIGNED_CONTEXT((#5560,#5570,#5580)) REPRESENTATION_CONTEXT
('',''));
#5600=UNCERTAINTY_MEASURE_WITH_UNIT(LENGTH_MEASURE(1.E-6),#5560,
'distance_accuracy_value','maximum gap value');
#5610=ADVANCED_BREP_SHAPE_REPRESENTATION('',(#5430,#5390),#5590);
#5620=SHAPE_DEFINITION_REPRESENTATION(#5520,#5610);
#5630=COLOUR_RGB('',0.690196096897125,0.886274576187134,1.);
#5640=FILL_AREA_STYLE_COLOUR('',#5630);
#5650=FILL_AREA_STYLE('',(#5640));
#5660=SURFACE_STYLE_FILL_AREA(#5650);
#5670=SURFACE_SIDE_STYLE('',(#5660));
#5680=SURFACE_STYLE_USAGE(.BOTH.,#5670);
#5690=PRESENTATION_STYLE_ASSIGNMENT((#5680));
#5700=STYLED_ITEM('',(#5690),#5390);
#5710=OVER_RIDING_STYLED_ITEM('',(#1100),#1030,#5700);
#5720=OVER_RIDING_STYLED_ITEM('',(#1430),#1360,#5700);
#5730=OVER_RIDING_STYLED_ITEM('',(#4880),#4810,#5700);
#5740=DRAUGHTING_MODEL('',(#5700,#5710,#5720,#5730),#5590);
#5750=CARTESIAN_POINT('',(0.,0.,0.));
#5760=DIRECTION('',(0.,1.,0.));
#5770=DIRECTION('',(0.,0.,1.));
#5780=AXIS2_PLACEMENT_3D('',#5750,#5760,#5770);
#5790=ITEM_DEFINED_TRANSFORMATION(
'Sperrzahnschraube_M8x14-aehnlich-DIN912_44.0513_PX173491','',#5430,
#5780);
#5800=APPLICATION_CONTEXT(' ');
#5810=APPLICATION_PROTOCOL_DEFINITION(' ','automotive_design',1998,#5800
);
#5820=PRODUCT_CONTEXT('',#5800,'mechanical');
#5830=PRODUCT_DEFINITION_CONTEXT('part definition',#5800,'design');
#5840=PRODUCT('Sperrzahnschraube_M8x14-aehnlich-DIN912_44.0513_PX173491'
,'Sperrzahnschraube_M8x14-aehnlich-DIN912_44.0513_PX173491','',(#5820));
#5850=PRODUCT_RELATED_PRODUCT_CATEGORY('part',' ',(#5840));
#5860=PRODUCT_DEFINITION_FORMATION_WITH_SPECIFIED_SOURCE('','',#5840,
.BOUGHT.);
#5870=PRODUCT_DEFINITION('',' ',#5860,#5830);
#5880=PRODUCT_DEFINITION_SHAPE('','',#5870);
#5890=DIMENSIONAL_EXPONENTS(1.,0.,0.,0.,0.,0.,0.);
#5900=DIMENSIONAL_EXPONENTS(0.,0.,0.,0.,0.,0.,0.);
#5910=DIMENSIONAL_EXPONENTS(0.,0.,0.,0.,0.,0.,0.);
#5920=(LENGTH_UNIT() NAMED_UNIT(*) SI_UNIT(.MILLI.,.METRE.));
#5930=(NAMED_UNIT(*) PLANE_ANGLE_UNIT() SI_UNIT($,.RADIAN.));
#5940=(NAMED_UNIT(*) SI_UNIT($,.STERADIAN.) SOLID_ANGLE_UNIT());
#5950=(GEOMETRIC_REPRESENTATION_CONTEXT(3) 
GLOBAL_UNCERTAINTY_ASSIGNED_CONTEXT((#5960)) 
GLOBAL_UNIT_ASSIGNED_CONTEXT((#5920,#5930,#5940)) REPRESENTATION_CONTEXT
('',''));
#5960=UNCERTAINTY_MEASURE_WITH_UNIT(LENGTH_MEASURE(1.E-6),#5920,
'distance_accuracy_value','maximum gap value');
#5970=SHAPE_REPRESENTATION('',(#5430,#5780),#5950);
#5980=SHAPE_DEFINITION_REPRESENTATION(#5880,#5970);
#5990=(REPRESENTATION_RELATIONSHIP('','',#5610,#5970) 
REPRESENTATION_RELATIONSHIP_WITH_TRANSFORMATION(#5790) 
SHAPE_REPRESENTATION_RELATIONSHIP());
#6000=NEXT_ASSEMBLY_USAGE_OCCURRENCE('1','',
'Sperrzahnschraube_M8x14-aehnlich-DIN912_44.0513_PX173491',#5870,#5510,
'');
#6010=PRODUCT_DEFINITION_SHAPE('','',#6000);
#6020=CONTEXT_DEPENDENT_SHAPE_REPRESENTATION(#5990,#6010);
ENDSEC;
END-ISO-10303-21;
