ISO-10303-21;
HEADER;
FILE_DESCRIPTION(('Creo Elements/Direct Modeling STEP Export'),'2;1');
FILE_NAME(
'//KR-CAD2/PhoenixTemp/karl.letzgus/Konvertierung/55.0180.13_Winkelplatt
e-MMS-55_3mm-chem-vernickelt.stp','2022-03-21T 8:07:09',(''),(''),
'PTC Creo Elements/Direct Modeling STEP processor for AP214 (Solid Model
)',
'PTC Creo Elements/Direct Modeling 19.0C  15-Aug-2015 (C) Parametric Tec
hnology GmbH','');
FILE_SCHEMA(('AUTOMOTIVE_DESIGN { 1 0 10303 214 1 1 1 1 }'));
ENDSEC;
DATA;
#10=CARTESIAN_POINT('',(0.,0.,0.));
#20=DIRECTION('',(0.,0.,1.));
#30=DIRECTION('',(1.,0.,0.));
#40=AXIS2_PLACEMENT_3D('',#10,#20,#30);
#50=PLANE('',#40);
#60=CARTESIAN_POINT('',(-13.7512675641527,97.,0.));
#70=DIRECTION('',(0.,0.,-1.));
#80=DIRECTION('',(-1.,0.,0.));
#90=AXIS2_PLACEMENT_3D('',#60,#70,#80);
#100=CIRCLE('',#90,5.);
#110=CARTESIAN_POINT('',(-18.282806499336,99.1130913087035,0.));
#120=VERTEX_POINT('',#110);
#130=CARTESIAN_POINT('',(-13.7512675641527,102.,0.));
#140=VERTEX_POINT('',#130);
#150=EDGE_CURVE('',#120,#140,#100,.T.);
#160=ORIENTED_EDGE('',*,*,#150,.F.);
#170=CARTESIAN_POINT('',(16.9366188681902,102.,0.));
#180=DIRECTION('',(-1.,4.19530451319666E-16,0.));
#190=VECTOR('',#180,1.);
#200=LINE('',#170,#190);
#210=CARTESIAN_POINT('',(19.8481235641528,102.,0.));
#220=VERTEX_POINT('',#210);
#230=EDGE_CURVE('',#220,#140,#200,.T.);
#240=ORIENTED_EDGE('',*,*,#230,.T.);
#250=CARTESIAN_POINT('',(19.8481235641528,97.,0.));
#260=DIRECTION('',(0.,0.,1.));
#270=DIRECTION('',(1.,0.,0.));
#280=AXIS2_PLACEMENT_3D('',#250,#260,#270);
#290=CIRCLE('',#280,5.);
#300=CARTESIAN_POINT('',(24.379662499336,99.1130913087035,0.));
#310=VERTEX_POINT('',#300);
#320=EDGE_CURVE('',#310,#220,#290,.T.);
#330=ORIENTED_EDGE('',*,*,#320,.T.);
#340=CARTESIAN_POINT('',(70.596856,0.,0.));
#350=DIRECTION('',(-0.422618261740699,0.90630778703665,0.));
#360=VECTOR('',#350,1.);
#370=LINE('',#340,#360);
#380=CARTESIAN_POINT('',(67.2799670495958,7.11309130870349,0.));
#390=VERTEX_POINT('',#380);
#400=EDGE_CURVE('',#390,#310,#370,.T.);
#410=ORIENTED_EDGE('',*,*,#400,.T.);
#420=CARTESIAN_POINT('',(62.7484281144126,5.,0.));
#430=DIRECTION('',(0.,0.,1.));
#440=DIRECTION('',(1.,0.,0.));
#450=AXIS2_PLACEMENT_3D('',#420,#430,#440);
#460=CIRCLE('',#450,5.);
#470=CARTESIAN_POINT('',(62.7484281144126,0.,0.));
#480=VERTEX_POINT('',#470);
#490=EDGE_CURVE('',#480,#390,#460,.T.);
#500=ORIENTED_EDGE('',*,*,#490,.T.);
#510=CARTESIAN_POINT('',(-64.5,0.,0.));
#520=DIRECTION('',(1.,0.,0.));
#530=VECTOR('',#520,1.);
#540=LINE('',#510,#530);
#550=CARTESIAN_POINT('',(-56.6515721144125,0.,0.));
#560=VERTEX_POINT('',#550);
#570=EDGE_CURVE('',#560,#480,#540,.T.);
#580=ORIENTED_EDGE('',*,*,#570,.T.);
#590=CARTESIAN_POINT('',(-56.6515721144125,5.,0.));
#600=DIRECTION('',(0.,0.,1.));
#610=DIRECTION('',(1.,0.,0.));
#620=AXIS2_PLACEMENT_3D('',#590,#600,#610);
#630=CIRCLE('',#620,5.);
#640=CARTESIAN_POINT('',(-61.1831110495958,7.1130913087035,0.));
#650=VERTEX_POINT('',#640);
#660=EDGE_CURVE('',#650,#560,#630,.T.);
#670=ORIENTED_EDGE('',*,*,#660,.T.);
#680=CARTESIAN_POINT('',(-16.9366188681902,102.,0.));
#690=DIRECTION('',(-0.422618261740699,-0.90630778703665,0.));
#700=VECTOR('',#690,1.);
#710=LINE('',#680,#700);
#720=EDGE_CURVE('',#120,#650,#710,.T.);
#730=ORIENTED_EDGE('',*,*,#720,.T.);
#740=EDGE_LOOP('',(#730,#670,#580,#500,#410,#330,#240,#160));
#750=FACE_OUTER_BOUND('',#740,.T.);
#760=CARTESIAN_POINT('',(40.548428,22.,0.));
#770=DIRECTION('',(0.,0.,1.));
#780=DIRECTION('',(1.,0.,0.));
#790=AXIS2_PLACEMENT_3D('',#760,#770,#780);
#800=CIRCLE('',#790,4.5);
#810=CARTESIAN_POINT('',(45.048428,22.,0.));
#820=VERTEX_POINT('',#810);
#830=CARTESIAN_POINT('',(36.048428,22.,0.));
#840=VERTEX_POINT('',#830);
#850=EDGE_CURVE('',#820,#840,#800,.T.);
#860=ORIENTED_EDGE('',*,*,#850,.F.);
#870=EDGE_CURVE('',#840,#820,#800,.T.);
#880=ORIENTED_EDGE('',*,*,#870,.F.);
#890=EDGE_LOOP('',(#880,#860));
#900=FACE_BOUND('',#890,.T.);
#910=CARTESIAN_POINT('',(-34.451572,22.,0.));
#920=DIRECTION('',(0.,0.,1.));
#930=DIRECTION('',(1.,0.,0.));
#940=AXIS2_PLACEMENT_3D('',#910,#920,#930);
#950=CIRCLE('',#940,4.5);
#960=CARTESIAN_POINT('',(-29.951572,22.,0.));
#970=VERTEX_POINT('',#960);
#980=CARTESIAN_POINT('',(-38.951572,22.,0.));
#990=VERTEX_POINT('',#980);
#1000=EDGE_CURVE('',#970,#990,#950,.T.);
#1010=ORIENTED_EDGE('',*,*,#1000,.F.);
#1020=EDGE_CURVE('',#990,#970,#950,.T.);
#1030=ORIENTED_EDGE('',*,*,#1020,.F.);
#1040=EDGE_LOOP('',(#1030,#1010));
#1050=FACE_BOUND('',#1040,.T.);
#1060=CARTESIAN_POINT('',(3.04842800000003,87.,0.));
#1070=DIRECTION('',(0.,0.,1.));
#1080=DIRECTION('',(1.,0.,0.));
#1090=AXIS2_PLACEMENT_3D('',#1060,#1070,#1080);
#1100=CIRCLE('',#1090,4.5);
#1110=CARTESIAN_POINT('',(7.54842800000003,87.,0.));
#1120=VERTEX_POINT('',#1110);
#1130=CARTESIAN_POINT('',(-1.45157199999997,87.,0.));
#1140=VERTEX_POINT('',#1130);
#1150=EDGE_CURVE('',#1120,#1140,#1100,.T.);
#1160=ORIENTED_EDGE('',*,*,#1150,.F.);
#1170=EDGE_CURVE('',#1140,#1120,#1100,.T.);
#1180=ORIENTED_EDGE('',*,*,#1170,.F.);
#1190=EDGE_LOOP('',(#1180,#1160));
#1200=FACE_BOUND('',#1190,.T.);
#1210=ADVANCED_FACE('',(#750,#900,#1050,#1200),#50,.T.);
#1220=CARTESIAN_POINT('',(0.,0.,-3.));
#1230=DIRECTION('',(0.,0.,1.));
#1240=DIRECTION('',(1.,0.,0.));
#1250=AXIS2_PLACEMENT_3D('',#1220,#1230,#1240);
#1260=PLANE('',#1250);
#1270=CARTESIAN_POINT('',(-13.7512675641527,97.,-3.));
#1280=DIRECTION('',(0.,0.,-1.));
#1290=DIRECTION('',(-1.,0.,0.));
#1300=AXIS2_PLACEMENT_3D('',#1270,#1280,#1290);
#1310=CIRCLE('',#1300,5.);
#1320=CARTESIAN_POINT('',(-18.282806499336,99.1130913087035,-3.));
#1330=VERTEX_POINT('',#1320);
#1340=CARTESIAN_POINT('',(-13.7512675641527,102.,-3.));
#1350=VERTEX_POINT('',#1340);
#1360=EDGE_CURVE('',#1330,#1350,#1310,.T.);
#1370=ORIENTED_EDGE('',*,*,#1360,.T.);
#1380=CARTESIAN_POINT('',(-16.9366188681902,102.,-3.));
#1390=DIRECTION('',(-0.422618261740699,-0.90630778703665,0.));
#1400=VECTOR('',#1390,1.);
#1410=LINE('',#1380,#1400);
#1420=CARTESIAN_POINT('',(-61.1831110495958,7.1130913087035,-3.));
#1430=VERTEX_POINT('',#1420);
#1440=EDGE_CURVE('',#1330,#1430,#1410,.T.);
#1450=ORIENTED_EDGE('',*,*,#1440,.F.);
#1460=CARTESIAN_POINT('',(-56.6515721144125,5.,-3.));
#1470=DIRECTION('',(0.,0.,1.));
#1480=DIRECTION('',(1.,0.,0.));
#1490=AXIS2_PLACEMENT_3D('',#1460,#1470,#1480);
#1500=CIRCLE('',#1490,5.);
#1510=CARTESIAN_POINT('',(-56.6515721144125,0.,-3.));
#1520=VERTEX_POINT('',#1510);
#1530=EDGE_CURVE('',#1430,#1520,#1500,.T.);
#1540=ORIENTED_EDGE('',*,*,#1530,.F.);
#1550=CARTESIAN_POINT('',(-64.5,0.,-3.));
#1560=DIRECTION('',(1.,0.,0.));
#1570=VECTOR('',#1560,1.);
#1580=LINE('',#1550,#1570);
#1590=CARTESIAN_POINT('',(62.7484281144126,0.,-3.));
#1600=VERTEX_POINT('',#1590);
#1610=EDGE_CURVE('',#1520,#1600,#1580,.T.);
#1620=ORIENTED_EDGE('',*,*,#1610,.F.);
#1630=CARTESIAN_POINT('',(62.7484281144126,5.,-3.));
#1640=DIRECTION('',(0.,0.,1.));
#1650=DIRECTION('',(1.,0.,0.));
#1660=AXIS2_PLACEMENT_3D('',#1630,#1640,#1650);
#1670=CIRCLE('',#1660,5.);
#1680=CARTESIAN_POINT('',(67.2799670495958,7.11309130870349,-3.));
#1690=VERTEX_POINT('',#1680);
#1700=EDGE_CURVE('',#1600,#1690,#1670,.T.);
#1710=ORIENTED_EDGE('',*,*,#1700,.F.);
#1720=CARTESIAN_POINT('',(70.596856,0.,-3.));
#1730=DIRECTION('',(-0.422618261740699,0.90630778703665,0.));
#1740=VECTOR('',#1730,1.);
#1750=LINE('',#1720,#1740);
#1760=CARTESIAN_POINT('',(24.379662499336,99.1130913087035,-3.));
#1770=VERTEX_POINT('',#1760);
#1780=EDGE_CURVE('',#1690,#1770,#1750,.T.);
#1790=ORIENTED_EDGE('',*,*,#1780,.F.);
#1800=CARTESIAN_POINT('',(19.8481235641528,97.,-3.));
#1810=DIRECTION('',(0.,0.,1.));
#1820=DIRECTION('',(1.,0.,0.));
#1830=AXIS2_PLACEMENT_3D('',#1800,#1810,#1820);
#1840=CIRCLE('',#1830,5.);
#1850=CARTESIAN_POINT('',(19.8481235641528,102.,-3.));
#1860=VERTEX_POINT('',#1850);
#1870=EDGE_CURVE('',#1770,#1860,#1840,.T.);
#1880=ORIENTED_EDGE('',*,*,#1870,.F.);
#1890=CARTESIAN_POINT('',(16.9366188681902,102.,-3.));
#1900=DIRECTION('',(-1.,4.19530451319666E-16,0.));
#1910=VECTOR('',#1900,1.);
#1920=LINE('',#1890,#1910);
#1930=EDGE_CURVE('',#1860,#1350,#1920,.T.);
#1940=ORIENTED_EDGE('',*,*,#1930,.F.);
#1950=EDGE_LOOP('',(#1940,#1880,#1790,#1710,#1620,#1540,#1450,#1370));
#1960=FACE_OUTER_BOUND('',#1950,.T.);
#1970=CARTESIAN_POINT('',(40.548428,22.,-3.));
#1980=DIRECTION('',(0.,0.,1.));
#1990=DIRECTION('',(1.,0.,0.));
#2000=AXIS2_PLACEMENT_3D('',#1970,#1980,#1990);
#2010=CIRCLE('',#2000,4.5);
#2020=CARTESIAN_POINT('',(45.048428,22.,-3.));
#2030=VERTEX_POINT('',#2020);
#2040=CARTESIAN_POINT('',(36.048428,22.,-3.));
#2050=VERTEX_POINT('',#2040);
#2060=EDGE_CURVE('',#2030,#2050,#2010,.T.);
#2070=ORIENTED_EDGE('',*,*,#2060,.T.);
#2080=EDGE_CURVE('',#2050,#2030,#2010,.T.);
#2090=ORIENTED_EDGE('',*,*,#2080,.T.);
#2100=EDGE_LOOP('',(#2090,#2070));
#2110=FACE_BOUND('',#2100,.T.);
#2120=CARTESIAN_POINT('',(-34.451572,22.,-3.));
#2130=DIRECTION('',(0.,0.,1.));
#2140=DIRECTION('',(1.,0.,0.));
#2150=AXIS2_PLACEMENT_3D('',#2120,#2130,#2140);
#2160=CIRCLE('',#2150,4.5);
#2170=CARTESIAN_POINT('',(-29.951572,22.,-3.));
#2180=VERTEX_POINT('',#2170);
#2190=CARTESIAN_POINT('',(-38.951572,22.,-3.));
#2200=VERTEX_POINT('',#2190);
#2210=EDGE_CURVE('',#2180,#2200,#2160,.T.);
#2220=ORIENTED_EDGE('',*,*,#2210,.T.);
#2230=EDGE_CURVE('',#2200,#2180,#2160,.T.);
#2240=ORIENTED_EDGE('',*,*,#2230,.T.);
#2250=EDGE_LOOP('',(#2240,#2220));
#2260=FACE_BOUND('',#2250,.T.);
#2270=CARTESIAN_POINT('',(3.04842800000003,87.,-3.));
#2280=DIRECTION('',(0.,0.,1.));
#2290=DIRECTION('',(1.,0.,0.));
#2300=AXIS2_PLACEMENT_3D('',#2270,#2280,#2290);
#2310=CIRCLE('',#2300,4.5);
#2320=CARTESIAN_POINT('',(7.54842800000003,87.,-3.));
#2330=VERTEX_POINT('',#2320);
#2340=CARTESIAN_POINT('',(-1.45157199999997,87.,-3.));
#2350=VERTEX_POINT('',#2340);
#2360=EDGE_CURVE('',#2330,#2350,#2310,.T.);
#2370=ORIENTED_EDGE('',*,*,#2360,.T.);
#2380=EDGE_CURVE('',#2350,#2330,#2310,.T.);
#2390=ORIENTED_EDGE('',*,*,#2380,.T.);
#2400=EDGE_LOOP('',(#2390,#2370));
#2410=FACE_BOUND('',#2400,.T.);
#2420=ADVANCED_FACE('',(#1960,#2110,#2260,#2410),#1260,.F.);
#2430=CARTESIAN_POINT('',(-64.5,0.,0.));
#2440=DIRECTION('',(0.90630778703665,-0.422618261740699,0.));
#2450=DIRECTION('',(-0.422618261740699,-0.90630778703665,0.));
#2460=AXIS2_PLACEMENT_3D('',#2430,#2440,#2450);
#2470=PLANE('',#2460);
#2480=ORIENTED_EDGE('',*,*,#720,.F.);
#2490=CARTESIAN_POINT('',(-61.1831110495958,7.1130913087035,0.));
#2500=DIRECTION('',(0.,0.,-1.));
#2510=VECTOR('',#2500,1.);
#2520=LINE('',#2490,#2510);
#2530=EDGE_CURVE('',#650,#1430,#2520,.T.);
#2540=ORIENTED_EDGE('',*,*,#2530,.F.);
#2550=ORIENTED_EDGE('',*,*,#1440,.T.);
#2560=CARTESIAN_POINT('',(-18.282806499336,99.1130913087035,0.));
#2570=DIRECTION('',(0.,0.,-1.));
#2580=VECTOR('',#2570,1.);
#2590=LINE('',#2560,#2580);
#2600=EDGE_CURVE('',#120,#1330,#2590,.T.);
#2610=ORIENTED_EDGE('',*,*,#2600,.T.);
#2620=EDGE_LOOP('',(#2610,#2550,#2540,#2480));
#2630=FACE_OUTER_BOUND('',#2620,.T.);
#2640=ADVANCED_FACE('',(#2630),#2470,.F.);
#2650=CARTESIAN_POINT('',(64.5,0.,0.));
#2660=DIRECTION('',(-0.,1.,0.));
#2670=DIRECTION('',(1.,0.,0.));
#2680=AXIS2_PLACEMENT_3D('',#2650,#2660,#2670);
#2690=PLANE('',#2680);
#2700=ORIENTED_EDGE('',*,*,#1610,.T.);
#2710=CARTESIAN_POINT('',(-56.6515721144125,0.,0.));
#2720=DIRECTION('',(0.,0.,-1.));
#2730=VECTOR('',#2720,1.);
#2740=LINE('',#2710,#2730);
#2750=EDGE_CURVE('',#560,#1520,#2740,.T.);
#2760=ORIENTED_EDGE('',*,*,#2750,.T.);
#2770=ORIENTED_EDGE('',*,*,#570,.F.);
#2780=CARTESIAN_POINT('',(62.7484281144126,0.,0.));
#2790=DIRECTION('',(0.,0.,1.));
#2800=VECTOR('',#2790,1.);
#2810=LINE('',#2780,#2800);
#2820=EDGE_CURVE('',#1600,#480,#2810,.T.);
#2830=ORIENTED_EDGE('',*,*,#2820,.T.);
#2840=EDGE_LOOP('',(#2830,#2770,#2760,#2700));
#2850=FACE_OUTER_BOUND('',#2840,.T.);
#2860=ADVANCED_FACE('',(#2850),#2690,.F.);
#2870=CARTESIAN_POINT('',(23.0334748681902,102.,0.));
#2880=DIRECTION('',(-0.90630778703665,-0.422618261740699,-0.));
#2890=DIRECTION('',(-0.422618261740699,0.90630778703665,0.));
#2900=AXIS2_PLACEMENT_3D('',#2870,#2880,#2890);
#2910=PLANE('',#2900);
#2920=ORIENTED_EDGE('',*,*,#1780,.T.);
#2930=CARTESIAN_POINT('',(67.2799670495958,7.11309130870349,0.));
#2940=DIRECTION('',(0.,0.,1.));
#2950=VECTOR('',#2940,1.);
#2960=LINE('',#2930,#2950);
#2970=EDGE_CURVE('',#1690,#390,#2960,.T.);
#2980=ORIENTED_EDGE('',*,*,#2970,.F.);
#2990=ORIENTED_EDGE('',*,*,#400,.F.);
#3000=CARTESIAN_POINT('',(24.379662499336,99.1130913087035,0.));
#3010=DIRECTION('',(0.,0.,1.));
#3020=VECTOR('',#3010,1.);
#3030=LINE('',#3000,#3020);
#3040=EDGE_CURVE('',#1770,#310,#3030,.T.);
#3050=ORIENTED_EDGE('',*,*,#3040,.T.);
#3060=EDGE_LOOP('',(#3050,#2990,#2980,#2920));
#3070=FACE_OUTER_BOUND('',#3060,.T.);
#3080=ADVANCED_FACE('',(#3070),#2910,.F.);
#3090=CARTESIAN_POINT('',(-16.9366188681902,102.,0.));
#3100=DIRECTION('',(-4.19530451319666E-16,-1.,-0.));
#3110=DIRECTION('',(-1.,4.19530451319666E-16,0.));
#3120=AXIS2_PLACEMENT_3D('',#3090,#3100,#3110);
#3130=PLANE('',#3120);
#3140=ORIENTED_EDGE('',*,*,#230,.F.);
#3150=CARTESIAN_POINT('',(-13.7512675641527,102.,0.));
#3160=DIRECTION('',(0.,0.,-1.));
#3170=VECTOR('',#3160,1.);
#3180=LINE('',#3150,#3170);
#3190=EDGE_CURVE('',#140,#1350,#3180,.T.);
#3200=ORIENTED_EDGE('',*,*,#3190,.F.);
#3210=ORIENTED_EDGE('',*,*,#1930,.T.);
#3220=CARTESIAN_POINT('',(19.8481235641528,102.,0.));
#3230=DIRECTION('',(0.,0.,1.));
#3240=VECTOR('',#3230,1.);
#3250=LINE('',#3220,#3240);
#3260=EDGE_CURVE('',#1860,#220,#3250,.T.);
#3270=ORIENTED_EDGE('',*,*,#3260,.F.);
#3280=EDGE_LOOP('',(#3270,#3210,#3200,#3140));
#3290=FACE_OUTER_BOUND('',#3280,.T.);
#3300=ADVANCED_FACE('',(#3290),#3130,.F.);
#3310=CARTESIAN_POINT('',(-56.6515721144125,5.,0.));
#3320=DIRECTION('',(0.,0.,1.));
#3330=DIRECTION('',(1.,0.,0.));
#3340=AXIS2_PLACEMENT_3D('',#3310,#3320,#3330);
#3350=CYLINDRICAL_SURFACE('',#3340,5.);
#3360=ORIENTED_EDGE('',*,*,#660,.F.);
#3370=ORIENTED_EDGE('',*,*,#2750,.F.);
#3380=ORIENTED_EDGE('',*,*,#1530,.T.);
#3390=ORIENTED_EDGE('',*,*,#2530,.T.);
#3400=EDGE_LOOP('',(#3390,#3380,#3370,#3360));
#3410=FACE_OUTER_BOUND('',#3400,.T.);
#3420=ADVANCED_FACE('',(#3410),#3350,.T.);
#3430=CARTESIAN_POINT('',(-13.7512675641527,97.,0.));
#3440=DIRECTION('',(0.,0.,-1.));
#3450=DIRECTION('',(-1.,0.,0.));
#3460=AXIS2_PLACEMENT_3D('',#3430,#3440,#3450);
#3470=CYLINDRICAL_SURFACE('',#3460,5.);
#3480=ORIENTED_EDGE('',*,*,#1360,.F.);
#3490=ORIENTED_EDGE('',*,*,#3190,.T.);
#3500=ORIENTED_EDGE('',*,*,#150,.T.);
#3510=ORIENTED_EDGE('',*,*,#2600,.F.);
#3520=EDGE_LOOP('',(#3510,#3500,#3490,#3480));
#3530=FACE_OUTER_BOUND('',#3520,.T.);
#3540=ADVANCED_FACE('',(#3530),#3470,.T.);
#3550=CARTESIAN_POINT('',(19.8481235641528,97.,0.));
#3560=DIRECTION('',(0.,0.,1.));
#3570=DIRECTION('',(1.,0.,0.));
#3580=AXIS2_PLACEMENT_3D('',#3550,#3560,#3570);
#3590=CYLINDRICAL_SURFACE('',#3580,5.);
#3600=ORIENTED_EDGE('',*,*,#320,.F.);
#3610=ORIENTED_EDGE('',*,*,#3260,.T.);
#3620=ORIENTED_EDGE('',*,*,#1870,.T.);
#3630=ORIENTED_EDGE('',*,*,#3040,.F.);
#3640=EDGE_LOOP('',(#3630,#3620,#3610,#3600));
#3650=FACE_OUTER_BOUND('',#3640,.T.);
#3660=ADVANCED_FACE('',(#3650),#3590,.T.);
#3670=CARTESIAN_POINT('',(62.7484281144126,5.,0.));
#3680=DIRECTION('',(0.,0.,1.));
#3690=DIRECTION('',(1.,0.,0.));
#3700=AXIS2_PLACEMENT_3D('',#3670,#3680,#3690);
#3710=CYLINDRICAL_SURFACE('',#3700,5.);
#3720=ORIENTED_EDGE('',*,*,#490,.F.);
#3730=ORIENTED_EDGE('',*,*,#2970,.T.);
#3740=ORIENTED_EDGE('',*,*,#1700,.T.);
#3750=ORIENTED_EDGE('',*,*,#2820,.F.);
#3760=EDGE_LOOP('',(#3750,#3740,#3730,#3720));
#3770=FACE_OUTER_BOUND('',#3760,.T.);
#3780=ADVANCED_FACE('',(#3770),#3710,.T.);
#3790=CARTESIAN_POINT('',(40.548428,22.,0.));
#3800=DIRECTION('',(0.,0.,1.));
#3810=DIRECTION('',(1.,0.,0.));
#3820=AXIS2_PLACEMENT_3D('',#3790,#3800,#3810);
#3830=CYLINDRICAL_SURFACE('',#3820,4.5);
#3840=CARTESIAN_POINT('',(45.048428,22.,0.));
#3850=DIRECTION('',(0.,0.,1.));
#3860=VECTOR('',#3850,1.);
#3870=LINE('',#3840,#3860);
#3880=EDGE_CURVE('',#2030,#820,#3870,.T.);
#3890=ORIENTED_EDGE('',*,*,#3880,.F.);
#3900=ORIENTED_EDGE('',*,*,#870,.T.);
#3910=CARTESIAN_POINT('',(36.048428,22.,0.));
#3920=DIRECTION('',(0.,0.,1.));
#3930=VECTOR('',#3920,1.);
#3940=LINE('',#3910,#3930);
#3950=EDGE_CURVE('',#2050,#840,#3940,.T.);
#3960=ORIENTED_EDGE('',*,*,#3950,.T.);
#3970=ORIENTED_EDGE('',*,*,#2080,.F.);
#3980=EDGE_LOOP('',(#3970,#3960,#3900,#3890));
#3990=FACE_OUTER_BOUND('',#3980,.T.);
#4000=ADVANCED_FACE('',(#3990),#3830,.F.);
#4010=CARTESIAN_POINT('',(-34.451572,22.,0.));
#4020=DIRECTION('',(0.,0.,1.));
#4030=DIRECTION('',(1.,0.,0.));
#4040=AXIS2_PLACEMENT_3D('',#4010,#4020,#4030);
#4050=CYLINDRICAL_SURFACE('',#4040,4.5);
#4060=CARTESIAN_POINT('',(-29.951572,22.,0.));
#4070=DIRECTION('',(0.,0.,1.));
#4080=VECTOR('',#4070,1.);
#4090=LINE('',#4060,#4080);
#4100=EDGE_CURVE('',#2180,#970,#4090,.T.);
#4110=ORIENTED_EDGE('',*,*,#4100,.F.);
#4120=ORIENTED_EDGE('',*,*,#1020,.T.);
#4130=CARTESIAN_POINT('',(-38.951572,22.,0.));
#4140=DIRECTION('',(0.,0.,1.));
#4150=VECTOR('',#4140,1.);
#4160=LINE('',#4130,#4150);
#4170=EDGE_CURVE('',#2200,#990,#4160,.T.);
#4180=ORIENTED_EDGE('',*,*,#4170,.T.);
#4190=ORIENTED_EDGE('',*,*,#2230,.F.);
#4200=EDGE_LOOP('',(#4190,#4180,#4120,#4110));
#4210=FACE_OUTER_BOUND('',#4200,.T.);
#4220=ADVANCED_FACE('',(#4210),#4050,.F.);
#4230=CARTESIAN_POINT('',(3.04842800000003,87.,0.));
#4240=DIRECTION('',(0.,0.,1.));
#4250=DIRECTION('',(1.,0.,0.));
#4260=AXIS2_PLACEMENT_3D('',#4230,#4240,#4250);
#4270=CYLINDRICAL_SURFACE('',#4260,4.5);
#4280=CARTESIAN_POINT('',(7.54842800000003,87.,0.));
#4290=DIRECTION('',(0.,0.,1.));
#4300=VECTOR('',#4290,1.);
#4310=LINE('',#4280,#4300);
#4320=EDGE_CURVE('',#2330,#1120,#4310,.T.);
#4330=ORIENTED_EDGE('',*,*,#4320,.F.);
#4340=ORIENTED_EDGE('',*,*,#1170,.T.);
#4350=CARTESIAN_POINT('',(-1.45157199999997,87.,0.));
#4360=DIRECTION('',(0.,0.,1.));
#4370=VECTOR('',#4360,1.);
#4380=LINE('',#4350,#4370);
#4390=EDGE_CURVE('',#2350,#1140,#4380,.T.);
#4400=ORIENTED_EDGE('',*,*,#4390,.T.);
#4410=ORIENTED_EDGE('',*,*,#2380,.F.);
#4420=EDGE_LOOP('',(#4410,#4400,#4340,#4330));
#4430=FACE_OUTER_BOUND('',#4420,.T.);
#4440=ADVANCED_FACE('',(#4430),#4270,.F.);
#4450=CARTESIAN_POINT('',(40.548428,22.,0.));
#4460=DIRECTION('',(0.,0.,1.));
#4470=DIRECTION('',(1.,0.,0.));
#4480=AXIS2_PLACEMENT_3D('',#4450,#4460,#4470);
#4490=CYLINDRICAL_SURFACE('',#4480,4.5);
#4500=ORIENTED_EDGE('',*,*,#2060,.F.);
#4510=ORIENTED_EDGE('',*,*,#3950,.F.);
#4520=ORIENTED_EDGE('',*,*,#850,.T.);
#4530=ORIENTED_EDGE('',*,*,#3880,.T.);
#4540=EDGE_LOOP('',(#4530,#4520,#4510,#4500));
#4550=FACE_OUTER_BOUND('',#4540,.T.);
#4560=ADVANCED_FACE('',(#4550),#4490,.F.);
#4570=CARTESIAN_POINT('',(3.04842800000003,87.,0.));
#4580=DIRECTION('',(0.,0.,1.));
#4590=DIRECTION('',(1.,0.,0.));
#4600=AXIS2_PLACEMENT_3D('',#4570,#4580,#4590);
#4610=CYLINDRICAL_SURFACE('',#4600,4.5);
#4620=ORIENTED_EDGE('',*,*,#2360,.F.);
#4630=ORIENTED_EDGE('',*,*,#4390,.F.);
#4640=ORIENTED_EDGE('',*,*,#1150,.T.);
#4650=ORIENTED_EDGE('',*,*,#4320,.T.);
#4660=EDGE_LOOP('',(#4650,#4640,#4630,#4620));
#4670=FACE_OUTER_BOUND('',#4660,.T.);
#4680=ADVANCED_FACE('',(#4670),#4610,.F.);
#4690=CARTESIAN_POINT('',(-34.451572,22.,0.));
#4700=DIRECTION('',(0.,0.,1.));
#4710=DIRECTION('',(1.,0.,0.));
#4720=AXIS2_PLACEMENT_3D('',#4690,#4700,#4710);
#4730=CYLINDRICAL_SURFACE('',#4720,4.5);
#4740=ORIENTED_EDGE('',*,*,#2210,.F.);
#4750=ORIENTED_EDGE('',*,*,#4170,.F.);
#4760=ORIENTED_EDGE('',*,*,#1000,.T.);
#4770=ORIENTED_EDGE('',*,*,#4100,.T.);
#4780=EDGE_LOOP('',(#4770,#4760,#4750,#4740));
#4790=FACE_OUTER_BOUND('',#4780,.T.);
#4800=ADVANCED_FACE('',(#4790),#4730,.F.);
#4810=CLOSED_SHELL('',(#2640,#2860,#3080,#3300,#3420,#3540,#3660,#3780,
#4000,#4220,#4440,#4560,#4680,#4800,#2420,#1210));
#4820=MANIFOLD_SOLID_BREP('',#4810);
#4830=CARTESIAN_POINT('',(0.,0.,0.));
#4840=DIRECTION('',(0.,0.,1.));
#4850=DIRECTION('',(1.,0.,0.));
#4860=AXIS2_PLACEMENT_3D('',#4830,#4840,#4850);
#4870=APPLICATION_CONTEXT(' ');
#4880=APPLICATION_PROTOCOL_DEFINITION(' ','automotive_design',1998,#4870
);
#4890=PRODUCT_CONTEXT('',#4870,'mechanical');
#4900=PRODUCT_DEFINITION_CONTEXT('part definition',#4870,'design');
#4910=PRODUCT(
'Winkelplatte-MMS-55_3mm-chem-vernickelt_55.0180.13_PX176151',
'Winkelplatte-MMS-55_3mm-chem-vernickelt_55.0180.13_PX176151','',(#4890)
);
#4920=PRODUCT_RELATED_PRODUCT_CATEGORY('part',' ',(#4910));
#4930=PRODUCT_DEFINITION_FORMATION_WITH_SPECIFIED_SOURCE('','',#4910,
.BOUGHT.);
#4940=PRODUCT_DEFINITION('',' ',#4930,#4900);
#4950=PRODUCT_DEFINITION_SHAPE('','',#4940);
#4960=DIMENSIONAL_EXPONENTS(1.,0.,0.,0.,0.,0.,0.);
#4970=DIMENSIONAL_EXPONENTS(0.,0.,0.,0.,0.,0.,0.);
#4980=DIMENSIONAL_EXPONENTS(0.,0.,0.,0.,0.,0.,0.);
#4990=(LENGTH_UNIT() NAMED_UNIT(*) SI_UNIT(.MILLI.,.METRE.));
#5000=(NAMED_UNIT(*) PLANE_ANGLE_UNIT() SI_UNIT($,.RADIAN.));
#5010=(NAMED_UNIT(*) SI_UNIT($,.STERADIAN.) SOLID_ANGLE_UNIT());
#5020=(GEOMETRIC_REPRESENTATION_CONTEXT(3) 
GLOBAL_UNCERTAINTY_ASSIGNED_CONTEXT((#5030)) 
GLOBAL_UNIT_ASSIGNED_CONTEXT((#4990,#5000,#5010)) REPRESENTATION_CONTEXT
('',''));
#5030=UNCERTAINTY_MEASURE_WITH_UNIT(LENGTH_MEASURE(1.E-6),#4990,
'distance_accuracy_value','maximum gap value');
#5040=ADVANCED_BREP_SHAPE_REPRESENTATION('',(#4860,#4820),#5020);
#5050=SHAPE_DEFINITION_REPRESENTATION(#4950,#5040);
#5060=COLOUR_RGB('',0.690196096897125,0.886274576187134,1.);
#5070=FILL_AREA_STYLE_COLOUR('',#5060);
#5080=FILL_AREA_STYLE('',(#5070));
#5090=SURFACE_STYLE_FILL_AREA(#5080);
#5100=SURFACE_SIDE_STYLE('',(#5090));
#5110=SURFACE_STYLE_USAGE(.BOTH.,#5100);
#5120=PRESENTATION_STYLE_ASSIGNMENT((#5110));
#5130=STYLED_ITEM('',(#5120),#4820);
#5140=DRAUGHTING_MODEL('',(#5130),#5020);
#5150=CARTESIAN_POINT('',(6.88338275267597E-15,7.16093850883226E-15,-60.
));
#5160=DIRECTION('',(0.,0.,1.));
#5170=DIRECTION('',(1.,0.,0.));
#5180=AXIS2_PLACEMENT_3D('',#5150,#5160,#5170);
#5190=ITEM_DEFINED_TRANSFORMATION(
'Winkelplatte-MMS-55_3mm-chem-vernickelt_55.0180.13_PX176151','',#4860,
#5180);
#5200=APPLICATION_CONTEXT(' ');
#5210=APPLICATION_PROTOCOL_DEFINITION(' ','automotive_design',1998,#5200
);
#5220=PRODUCT_CONTEXT('',#5200,'mechanical');
#5230=PRODUCT_DEFINITION_CONTEXT('part definition',#5200,'design');
#5240=PRODUCT(
'Winkelplatte-MMS-55_3mm-chem-vernickelt_55.0180.13_PX176151',
'Winkelplatte-MMS-55_3mm-chem-vernickelt_55.0180.13_PX176151','',(#5220)
);
#5250=PRODUCT_RELATED_PRODUCT_CATEGORY('part',' ',(#5240));
#5260=PRODUCT_DEFINITION_FORMATION_WITH_SPECIFIED_SOURCE('','',#5240,
.BOUGHT.);
#5270=PRODUCT_DEFINITION('',' ',#5260,#5230);
#5280=PRODUCT_DEFINITION_SHAPE('','',#5270);
#5290=DIMENSIONAL_EXPONENTS(1.,0.,0.,0.,0.,0.,0.);
#5300=DIMENSIONAL_EXPONENTS(0.,0.,0.,0.,0.,0.,0.);
#5310=DIMENSIONAL_EXPONENTS(0.,0.,0.,0.,0.,0.,0.);
#5320=(LENGTH_UNIT() NAMED_UNIT(*) SI_UNIT(.MILLI.,.METRE.));
#5330=(NAMED_UNIT(*) PLANE_ANGLE_UNIT() SI_UNIT($,.RADIAN.));
#5340=(NAMED_UNIT(*) SI_UNIT($,.STERADIAN.) SOLID_ANGLE_UNIT());
#5350=(GEOMETRIC_REPRESENTATION_CONTEXT(3) 
GLOBAL_UNCERTAINTY_ASSIGNED_CONTEXT((#5360)) 
GLOBAL_UNIT_ASSIGNED_CONTEXT((#5320,#5330,#5340)) REPRESENTATION_CONTEXT
('',''));
#5360=UNCERTAINTY_MEASURE_WITH_UNIT(LENGTH_MEASURE(1.E-6),#5320,
'distance_accuracy_value','maximum gap value');
#5370=SHAPE_REPRESENTATION('',(#4860,#5180),#5350);
#5380=SHAPE_DEFINITION_REPRESENTATION(#5280,#5370);
#5390=(REPRESENTATION_RELATIONSHIP('','',#5040,#5370) 
REPRESENTATION_RELATIONSHIP_WITH_TRANSFORMATION(#5190) 
SHAPE_REPRESENTATION_RELATIONSHIP());
#5400=NEXT_ASSEMBLY_USAGE_OCCURRENCE('1','',
'Winkelplatte-MMS-55_3mm-chem-vernickelt_55.0180.13_PX176151',#5270,
#4940,'');
#5410=PRODUCT_DEFINITION_SHAPE('','',#5400);
#5420=CONTEXT_DEPENDENT_SHAPE_REPRESENTATION(#5390,#5410);
ENDSEC;
END-ISO-10303-21;
