ISO-10303-21;
HEADER;
FILE_DESCRIPTION(('Creo Elements/Direct Modeling STEP Export'),'2;1');
FILE_NAME(
'//KR-CAD2/PhoenixTemp/karl.letzgus/Konvertierung/33.0185.11_Verbindungs
lasche-MMS-33_2,5mm-chem-vernickelt.stp','2022-03-18T13:57:39',(''),('')
,
'PTC Creo Elements/Direct Modeling STEP processor for AP214 (Solid Model
)',
'PTC Creo Elements/Direct Modeling 19.0C  15-Aug-2015 (C) Parametric Tec
hnology GmbH','');
FILE_SCHEMA(('AUTOMOTIVE_DESIGN { 1 0 10303 214 1 1 1 1 }'));
ENDSEC;
DATA;
#10=CARTESIAN_POINT('',(30.,0.0250000000000052,25.));
#20=DIRECTION('',(0.,-1.,0.));
#30=DIRECTION('',(-1.,0.,0.));
#40=AXIS2_PLACEMENT_3D('',#10,#20,#30);
#50=CYLINDRICAL_SURFACE('',#40,3.5);
#60=CARTESIAN_POINT('',(26.5,0.0250000000000052,25.));
#70=DIRECTION('',(0.,-1.,0.));
#80=VECTOR('',#70,1.);
#90=LINE('',#60,#80);
#100=CARTESIAN_POINT('',(26.5,2.88657986402541E-15,25.));
#110=VERTEX_POINT('',#100);
#120=CARTESIAN_POINT('',(26.5,-2.5,25.));
#130=VERTEX_POINT('',#120);
#140=EDGE_CURVE('',#110,#130,#90,.T.);
#150=ORIENTED_EDGE('',*,*,#140,.F.);
#160=CARTESIAN_POINT('',(30.,-2.5,25.));
#170=DIRECTION('',(0.,1.,0.));
#180=DIRECTION('',(-1.,0.,0.));
#190=AXIS2_PLACEMENT_3D('',#160,#170,#180);
#200=CIRCLE('',#190,3.5);
#210=CARTESIAN_POINT('',(33.5,-2.5,25.));
#220=VERTEX_POINT('',#210);
#230=EDGE_CURVE('',#130,#220,#200,.T.);
#240=ORIENTED_EDGE('',*,*,#230,.F.);
#250=CARTESIAN_POINT('',(33.5,0.0250000000000052,25.));
#260=DIRECTION('',(0.,-1.,0.));
#270=VECTOR('',#260,1.);
#280=LINE('',#250,#270);
#290=CARTESIAN_POINT('',(33.5,-7.94503351997378E-16,25.));
#300=VERTEX_POINT('',#290);
#310=EDGE_CURVE('',#300,#220,#280,.T.);
#320=ORIENTED_EDGE('',*,*,#310,.T.);
#330=CARTESIAN_POINT('',(30.,-7.94503351997378E-16,25.));
#340=DIRECTION('',(0.,-1.,0.));
#350=DIRECTION('',(-1.,0.,0.));
#360=AXIS2_PLACEMENT_3D('',#330,#340,#350);
#370=CIRCLE('',#360,3.5);
#380=EDGE_CURVE('',#300,#110,#370,.T.);
#390=ORIENTED_EDGE('',*,*,#380,.F.);
#400=EDGE_LOOP('',(#390,#320,#240,#150));
#410=FACE_OUTER_BOUND('',#400,.T.);
#420=ADVANCED_FACE('',(#410),#50,.F.);
#430=CARTESIAN_POINT('',(30.,0.0250000000000008,1.30315891953141E-15));
#440=DIRECTION('',(0.,-1.,0.));
#450=DIRECTION('',(-1.,0.,0.));
#460=AXIS2_PLACEMENT_3D('',#430,#440,#450);
#470=CYLINDRICAL_SURFACE('',#460,3.5);
#480=CARTESIAN_POINT('',(33.5,0.0250000000000008,8.74532539829832E-16));
#490=DIRECTION('',(0.,-1.,0.));
#500=VECTOR('',#490,1.);
#510=LINE('',#480,#500);
#520=CARTESIAN_POINT('',(33.5,0.,8.74532539829832E-16));
#530=VERTEX_POINT('',#520);
#540=CARTESIAN_POINT('',(33.5,-2.5,8.74532539829832E-16));
#550=VERTEX_POINT('',#540);
#560=EDGE_CURVE('',#530,#550,#510,.T.);
#570=ORIENTED_EDGE('',*,*,#560,.F.);
#580=CARTESIAN_POINT('',(30.,-2.5,1.30315891953141E-15));
#590=DIRECTION('',(0.,1.,0.));
#600=DIRECTION('',(-1.,0.,0.));
#610=AXIS2_PLACEMENT_3D('',#580,#590,#600);
#620=CIRCLE('',#610,3.5);
#630=CARTESIAN_POINT('',(26.5,-2.5,1.30315891953141E-15));
#640=VERTEX_POINT('',#630);
#650=EDGE_CURVE('',#550,#640,#620,.T.);
#660=ORIENTED_EDGE('',*,*,#650,.F.);
#670=CARTESIAN_POINT('',(26.5,0.0250000000000008,1.30315891953141E-15));
#680=DIRECTION('',(0.,-1.,0.));
#690=VECTOR('',#680,1.);
#700=LINE('',#670,#690);
#710=CARTESIAN_POINT('',(26.5,-7.94503351997378E-16,1.30315891953141E-15
));
#720=VERTEX_POINT('',#710);
#730=EDGE_CURVE('',#720,#640,#700,.T.);
#740=ORIENTED_EDGE('',*,*,#730,.T.);
#750=CARTESIAN_POINT('',(30.,-7.94503351997378E-16,1.30315891953141E-15)
);
#760=DIRECTION('',(0.,-1.,0.));
#770=DIRECTION('',(-1.,0.,0.));
#780=AXIS2_PLACEMENT_3D('',#750,#760,#770);
#790=CIRCLE('',#780,3.5);
#800=EDGE_CURVE('',#720,#530,#790,.T.);
#810=ORIENTED_EDGE('',*,*,#800,.F.);
#820=EDGE_LOOP('',(#810,#740,#660,#570));
#830=FACE_OUTER_BOUND('',#820,.T.);
#840=ADVANCED_FACE('',(#830),#470,.F.);
#850=CARTESIAN_POINT('',(2.22044604925032E-16,0.0250000000000052,25.));
#860=DIRECTION('',(0.,-1.,0.));
#870=DIRECTION('',(-1.,0.,0.));
#880=AXIS2_PLACEMENT_3D('',#850,#860,#870);
#890=CYLINDRICAL_SURFACE('',#880,3.5);
#900=CARTESIAN_POINT('',(-3.5,0.0250000000000052,25.));
#910=DIRECTION('',(0.,-1.,0.));
#920=VECTOR('',#910,1.);
#930=LINE('',#900,#920);
#940=CARTESIAN_POINT('',(-3.5,2.88657986402541E-15,25.));
#950=VERTEX_POINT('',#940);
#960=CARTESIAN_POINT('',(-3.5,-2.5,25.));
#970=VERTEX_POINT('',#960);
#980=EDGE_CURVE('',#950,#970,#930,.T.);
#990=ORIENTED_EDGE('',*,*,#980,.F.);
#1000=CARTESIAN_POINT('',(2.22044604925032E-16,-2.5,25.));
#1010=DIRECTION('',(0.,1.,0.));
#1020=DIRECTION('',(-1.,0.,0.));
#1030=AXIS2_PLACEMENT_3D('',#1000,#1010,#1020);
#1040=CIRCLE('',#1030,3.5);
#1050=CARTESIAN_POINT('',(3.5,-2.5,25.));
#1060=VERTEX_POINT('',#1050);
#1070=EDGE_CURVE('',#970,#1060,#1040,.T.);
#1080=ORIENTED_EDGE('',*,*,#1070,.F.);
#1090=CARTESIAN_POINT('',(3.5,0.0250000000000052,25.));
#1100=DIRECTION('',(0.,-1.,0.));
#1110=VECTOR('',#1100,1.);
#1120=LINE('',#1090,#1110);
#1130=CARTESIAN_POINT('',(3.5,-7.94503351997378E-16,25.));
#1140=VERTEX_POINT('',#1130);
#1150=EDGE_CURVE('',#1140,#1060,#1120,.T.);
#1160=ORIENTED_EDGE('',*,*,#1150,.T.);
#1170=CARTESIAN_POINT('',(2.22044604925032E-16,-7.94503351997378E-16,25.
));
#1180=DIRECTION('',(0.,-1.,0.));
#1190=DIRECTION('',(-1.,0.,0.));
#1200=AXIS2_PLACEMENT_3D('',#1170,#1180,#1190);
#1210=CIRCLE('',#1200,3.5);
#1220=EDGE_CURVE('',#1140,#950,#1210,.T.);
#1230=ORIENTED_EDGE('',*,*,#1220,.F.);
#1240=EDGE_LOOP('',(#1230,#1160,#1080,#990));
#1250=FACE_OUTER_BOUND('',#1240,.T.);
#1260=ADVANCED_FACE('',(#1250),#890,.F.);
#1270=CARTESIAN_POINT('',(2.22044604925031E-16,0.0250000000000008,
1.30315891953141E-15));
#1280=DIRECTION('',(0.,-1.,0.));
#1290=DIRECTION('',(-1.,0.,0.));
#1300=AXIS2_PLACEMENT_3D('',#1270,#1280,#1290);
#1310=CYLINDRICAL_SURFACE('',#1300,3.5);
#1320=CARTESIAN_POINT('',(3.5,0.0250000000000008,8.74532539829832E-16));
#1330=DIRECTION('',(0.,-1.,0.));
#1340=VECTOR('',#1330,1.);
#1350=LINE('',#1320,#1340);
#1360=CARTESIAN_POINT('',(3.5,0.,8.74532539829832E-16));
#1370=VERTEX_POINT('',#1360);
#1380=CARTESIAN_POINT('',(3.5,-2.5,8.74532539829832E-16));
#1390=VERTEX_POINT('',#1380);
#1400=EDGE_CURVE('',#1370,#1390,#1350,.T.);
#1410=ORIENTED_EDGE('',*,*,#1400,.F.);
#1420=CARTESIAN_POINT('',(2.22044604925031E-16,-2.5,1.30315891953141E-15
));
#1430=DIRECTION('',(0.,1.,0.));
#1440=DIRECTION('',(-1.,0.,0.));
#1450=AXIS2_PLACEMENT_3D('',#1420,#1430,#1440);
#1460=CIRCLE('',#1450,3.5);
#1470=CARTESIAN_POINT('',(-3.5,-2.5,1.30315891953141E-15));
#1480=VERTEX_POINT('',#1470);
#1490=EDGE_CURVE('',#1390,#1480,#1460,.T.);
#1500=ORIENTED_EDGE('',*,*,#1490,.F.);
#1510=CARTESIAN_POINT('',(-3.5,0.0250000000000008,1.30315891953141E-15))
;
#1520=DIRECTION('',(0.,-1.,0.));
#1530=VECTOR('',#1520,1.);
#1540=LINE('',#1510,#1530);
#1550=CARTESIAN_POINT('',(-3.5,-7.94503351997378E-16,
1.30315891953141E-15));
#1560=VERTEX_POINT('',#1550);
#1570=EDGE_CURVE('',#1560,#1480,#1540,.T.);
#1580=ORIENTED_EDGE('',*,*,#1570,.T.);
#1590=CARTESIAN_POINT('',(2.22044604925031E-16,-7.94503351997378E-16,
1.30315891953141E-15));
#1600=DIRECTION('',(0.,-1.,0.));
#1610=DIRECTION('',(-1.,0.,0.));
#1620=AXIS2_PLACEMENT_3D('',#1590,#1600,#1610);
#1630=CIRCLE('',#1620,3.5);
#1640=EDGE_CURVE('',#1560,#1370,#1630,.T.);
#1650=ORIENTED_EDGE('',*,*,#1640,.F.);
#1660=EDGE_LOOP('',(#1650,#1580,#1500,#1410));
#1670=FACE_OUTER_BOUND('',#1660,.T.);
#1680=ADVANCED_FACE('',(#1670),#1310,.F.);
#1690=CARTESIAN_POINT('',(-14.5,-2.5,-13.));
#1700=DIRECTION('',(-0.,-1.,-0.));
#1710=DIRECTION('',(-1.,0.,0.));
#1720=AXIS2_PLACEMENT_3D('',#1690,#1700,#1710);
#1730=PLANE('',#1720);
#1740=ORIENTED_EDGE('',*,*,#230,.T.);
#1750=EDGE_CURVE('',#220,#130,#200,.T.);
#1760=ORIENTED_EDGE('',*,*,#1750,.T.);
#1770=EDGE_LOOP('',(#1760,#1740));
#1780=FACE_BOUND('',#1770,.T.);
#1790=EDGE_CURVE('',#640,#550,#620,.T.);
#1800=ORIENTED_EDGE('',*,*,#1790,.T.);
#1810=ORIENTED_EDGE('',*,*,#650,.T.);
#1820=EDGE_LOOP('',(#1810,#1800));
#1830=FACE_BOUND('',#1820,.T.);
#1840=EDGE_CURVE('',#1060,#970,#1040,.T.);
#1850=ORIENTED_EDGE('',*,*,#1840,.T.);
#1860=ORIENTED_EDGE('',*,*,#1070,.T.);
#1870=EDGE_LOOP('',(#1860,#1850));
#1880=FACE_BOUND('',#1870,.T.);
#1890=EDGE_CURVE('',#1480,#1390,#1460,.T.);
#1900=ORIENTED_EDGE('',*,*,#1890,.T.);
#1910=ORIENTED_EDGE('',*,*,#1490,.T.);
#1920=EDGE_LOOP('',(#1910,#1900));
#1930=FACE_BOUND('',#1920,.T.);
#1940=CARTESIAN_POINT('',(41.,-2.5,-9.5));
#1950=DIRECTION('',(0.,-1.,0.));
#1960=DIRECTION('',(-1.,0.,0.));
#1970=AXIS2_PLACEMENT_3D('',#1940,#1950,#1960);
#1980=CIRCLE('',#1970,3.);
#1990=CARTESIAN_POINT('',(41.,-2.5,-12.5));
#2000=VERTEX_POINT('',#1990);
#2010=CARTESIAN_POINT('',(44.,-2.5,-9.5));
#2020=VERTEX_POINT('',#2010);
#2030=EDGE_CURVE('',#2000,#2020,#1980,.T.);
#2040=ORIENTED_EDGE('',*,*,#2030,.T.);
#2050=CARTESIAN_POINT('',(0.,-2.5,-12.5));
#2060=DIRECTION('',(1.,0.,0.));
#2070=VECTOR('',#2060,1.);
#2080=LINE('',#2050,#2070);
#2090=CARTESIAN_POINT('',(-11.,-2.5,-12.5));
#2100=VERTEX_POINT('',#2090);
#2110=EDGE_CURVE('',#2100,#2000,#2080,.T.);
#2120=ORIENTED_EDGE('',*,*,#2110,.T.);
#2130=CARTESIAN_POINT('',(-11.,-2.5,-9.5));
#2140=DIRECTION('',(0.,1.,0.));
#2150=DIRECTION('',(1.,0.,0.));
#2160=AXIS2_PLACEMENT_3D('',#2130,#2140,#2150);
#2170=CIRCLE('',#2160,3.);
#2180=CARTESIAN_POINT('',(-14.,-2.5,-9.5));
#2190=VERTEX_POINT('',#2180);
#2200=EDGE_CURVE('',#2100,#2190,#2170,.T.);
#2210=ORIENTED_EDGE('',*,*,#2200,.F.);
#2220=CARTESIAN_POINT('',(-14.,-2.5,0.));
#2230=DIRECTION('',(0.,0.,-1.));
#2240=VECTOR('',#2230,1.);
#2250=LINE('',#2220,#2240);
#2260=CARTESIAN_POINT('',(-14.,-2.5,34.5));
#2270=VERTEX_POINT('',#2260);
#2280=EDGE_CURVE('',#2270,#2190,#2250,.T.);
#2290=ORIENTED_EDGE('',*,*,#2280,.T.);
#2300=CARTESIAN_POINT('',(-11.,-2.5,34.5));
#2310=DIRECTION('',(0.,1.,0.));
#2320=DIRECTION('',(1.,0.,0.));
#2330=AXIS2_PLACEMENT_3D('',#2300,#2310,#2320);
#2340=CIRCLE('',#2330,3.);
#2350=CARTESIAN_POINT('',(-11.,-2.5,37.5));
#2360=VERTEX_POINT('',#2350);
#2370=EDGE_CURVE('',#2270,#2360,#2340,.T.);
#2380=ORIENTED_EDGE('',*,*,#2370,.F.);
#2390=CARTESIAN_POINT('',(0.,-2.5,37.5));
#2400=DIRECTION('',(-1.,0.,0.));
#2410=VECTOR('',#2400,1.);
#2420=LINE('',#2390,#2410);
#2430=CARTESIAN_POINT('',(41.,-2.5,37.5));
#2440=VERTEX_POINT('',#2430);
#2450=EDGE_CURVE('',#2440,#2360,#2420,.T.);
#2460=ORIENTED_EDGE('',*,*,#2450,.T.);
#2470=CARTESIAN_POINT('',(41.,-2.5,34.5));
#2480=DIRECTION('',(0.,1.,0.));
#2490=DIRECTION('',(1.,0.,0.));
#2500=AXIS2_PLACEMENT_3D('',#2470,#2480,#2490);
#2510=CIRCLE('',#2500,3.);
#2520=CARTESIAN_POINT('',(44.,-2.5,34.5));
#2530=VERTEX_POINT('',#2520);
#2540=EDGE_CURVE('',#2440,#2530,#2510,.T.);
#2550=ORIENTED_EDGE('',*,*,#2540,.F.);
#2560=CARTESIAN_POINT('',(44.,-2.5,0.));
#2570=DIRECTION('',(0.,0.,1.));
#2580=VECTOR('',#2570,1.);
#2590=LINE('',#2560,#2580);
#2600=EDGE_CURVE('',#2020,#2530,#2590,.T.);
#2610=ORIENTED_EDGE('',*,*,#2600,.T.);
#2620=EDGE_LOOP('',(#2610,#2550,#2460,#2380,#2290,#2210,#2120,#2040));
#2630=FACE_OUTER_BOUND('',#2620,.T.);
#2640=ADVANCED_FACE('',(#1780,#1830,#1880,#1930,#2630),#1730,.T.);
#2650=CARTESIAN_POINT('',(-14.5,-7.95994129984545E-16,-13.));
#2660=DIRECTION('',(-0.,-1.,-0.));
#2670=DIRECTION('',(-1.,0.,0.));
#2680=AXIS2_PLACEMENT_3D('',#2650,#2660,#2670);
#2690=PLANE('',#2680);
#2700=EDGE_CURVE('',#110,#300,#370,.T.);
#2710=ORIENTED_EDGE('',*,*,#2700,.T.);
#2720=ORIENTED_EDGE('',*,*,#380,.T.);
#2730=EDGE_LOOP('',(#2720,#2710));
#2740=FACE_BOUND('',#2730,.T.);
#2750=EDGE_CURVE('',#530,#720,#790,.T.);
#2760=ORIENTED_EDGE('',*,*,#2750,.T.);
#2770=ORIENTED_EDGE('',*,*,#800,.T.);
#2780=EDGE_LOOP('',(#2770,#2760));
#2790=FACE_BOUND('',#2780,.T.);
#2800=EDGE_CURVE('',#950,#1140,#1210,.T.);
#2810=ORIENTED_EDGE('',*,*,#2800,.T.);
#2820=ORIENTED_EDGE('',*,*,#1220,.T.);
#2830=EDGE_LOOP('',(#2820,#2810));
#2840=FACE_BOUND('',#2830,.T.);
#2850=EDGE_CURVE('',#1370,#1560,#1630,.T.);
#2860=ORIENTED_EDGE('',*,*,#2850,.T.);
#2870=ORIENTED_EDGE('',*,*,#1640,.T.);
#2880=EDGE_LOOP('',(#2870,#2860));
#2890=FACE_BOUND('',#2880,.T.);
#2900=CARTESIAN_POINT('',(41.,-7.95994129984545E-16,-9.5));
#2910=DIRECTION('',(0.,-1.,0.));
#2920=DIRECTION('',(-1.,0.,0.));
#2930=AXIS2_PLACEMENT_3D('',#2900,#2910,#2920);
#2940=CIRCLE('',#2930,3.);
#2950=CARTESIAN_POINT('',(41.,-7.95994129984545E-16,-12.5));
#2960=VERTEX_POINT('',#2950);
#2970=CARTESIAN_POINT('',(44.,-7.95994129984545E-16,-9.5));
#2980=VERTEX_POINT('',#2970);
#2990=EDGE_CURVE('',#2960,#2980,#2940,.T.);
#3000=ORIENTED_EDGE('',*,*,#2990,.F.);
#3010=CARTESIAN_POINT('',(44.,-7.95994129984545E-16,0.));
#3020=DIRECTION('',(0.,0.,-1.));
#3030=VECTOR('',#3020,1.);
#3040=LINE('',#3010,#3030);
#3050=CARTESIAN_POINT('',(44.,-7.95994129984545E-16,34.5));
#3060=VERTEX_POINT('',#3050);
#3070=EDGE_CURVE('',#3060,#2980,#3040,.T.);
#3080=ORIENTED_EDGE('',*,*,#3070,.T.);
#3090=CARTESIAN_POINT('',(41.,-7.95994129984545E-16,34.5));
#3100=DIRECTION('',(0.,1.,0.));
#3110=DIRECTION('',(1.,0.,0.));
#3120=AXIS2_PLACEMENT_3D('',#3090,#3100,#3110);
#3130=CIRCLE('',#3120,3.);
#3140=CARTESIAN_POINT('',(41.,-7.95994129984545E-16,37.5));
#3150=VERTEX_POINT('',#3140);
#3160=EDGE_CURVE('',#3150,#3060,#3130,.T.);
#3170=ORIENTED_EDGE('',*,*,#3160,.T.);
#3180=CARTESIAN_POINT('',(0.,-7.95994129984545E-16,37.5));
#3190=DIRECTION('',(1.,0.,0.));
#3200=VECTOR('',#3190,1.);
#3210=LINE('',#3180,#3200);
#3220=CARTESIAN_POINT('',(-11.,-7.95994129984545E-16,37.5));
#3230=VERTEX_POINT('',#3220);
#3240=EDGE_CURVE('',#3230,#3150,#3210,.T.);
#3250=ORIENTED_EDGE('',*,*,#3240,.T.);
#3260=CARTESIAN_POINT('',(-11.,-7.95994129984545E-16,34.5));
#3270=DIRECTION('',(0.,1.,0.));
#3280=DIRECTION('',(1.,0.,0.));
#3290=AXIS2_PLACEMENT_3D('',#3260,#3270,#3280);
#3300=CIRCLE('',#3290,3.);
#3310=CARTESIAN_POINT('',(-14.,-7.95994129984545E-16,34.5));
#3320=VERTEX_POINT('',#3310);
#3330=EDGE_CURVE('',#3320,#3230,#3300,.T.);
#3340=ORIENTED_EDGE('',*,*,#3330,.T.);
#3350=CARTESIAN_POINT('',(-14.,-7.95994129984545E-16,0.));
#3360=DIRECTION('',(0.,0.,1.));
#3370=VECTOR('',#3360,1.);
#3380=LINE('',#3350,#3370);
#3390=CARTESIAN_POINT('',(-14.,-7.95994129984545E-16,-9.5));
#3400=VERTEX_POINT('',#3390);
#3410=EDGE_CURVE('',#3400,#3320,#3380,.T.);
#3420=ORIENTED_EDGE('',*,*,#3410,.T.);
#3430=CARTESIAN_POINT('',(-11.,-7.95994129984545E-16,-9.5));
#3440=DIRECTION('',(0.,1.,0.));
#3450=DIRECTION('',(1.,0.,0.));
#3460=AXIS2_PLACEMENT_3D('',#3430,#3440,#3450);
#3470=CIRCLE('',#3460,3.);
#3480=CARTESIAN_POINT('',(-11.,-7.95994129984545E-16,-12.5));
#3490=VERTEX_POINT('',#3480);
#3500=EDGE_CURVE('',#3490,#3400,#3470,.T.);
#3510=ORIENTED_EDGE('',*,*,#3500,.T.);
#3520=CARTESIAN_POINT('',(0.,-7.95994129984545E-16,-12.5));
#3530=DIRECTION('',(-1.,0.,0.));
#3540=VECTOR('',#3530,1.);
#3550=LINE('',#3520,#3540);
#3560=EDGE_CURVE('',#2960,#3490,#3550,.T.);
#3570=ORIENTED_EDGE('',*,*,#3560,.T.);
#3580=EDGE_LOOP('',(#3570,#3510,#3420,#3340,#3250,#3170,#3080,#3000));
#3590=FACE_OUTER_BOUND('',#3580,.T.);
#3600=ADVANCED_FACE('',(#2740,#2790,#2840,#2890,#3590),#2690,.F.);
#3610=CARTESIAN_POINT('',(-14.5,0.0249999999999992,-12.5));
#3620=DIRECTION('',(0.,0.,1.));
#3630=DIRECTION('',(1.,0.,0.));
#3640=AXIS2_PLACEMENT_3D('',#3610,#3620,#3630);
#3650=PLANE('',#3640);
#3660=ORIENTED_EDGE('',*,*,#3560,.F.);
#3670=CARTESIAN_POINT('',(-11.,0.,-12.5));
#3680=DIRECTION('',(0.,1.,0.));
#3690=VECTOR('',#3680,1.);
#3700=LINE('',#3670,#3690);
#3710=EDGE_CURVE('',#2100,#3490,#3700,.T.);
#3720=ORIENTED_EDGE('',*,*,#3710,.T.);
#3730=ORIENTED_EDGE('',*,*,#2110,.F.);
#3740=CARTESIAN_POINT('',(41.,0.,-12.5));
#3750=DIRECTION('',(0.,1.,0.));
#3760=VECTOR('',#3750,1.);
#3770=LINE('',#3740,#3760);
#3780=EDGE_CURVE('',#2000,#2960,#3770,.T.);
#3790=ORIENTED_EDGE('',*,*,#3780,.F.);
#3800=EDGE_LOOP('',(#3790,#3730,#3720,#3660));
#3810=FACE_OUTER_BOUND('',#3800,.T.);
#3820=ADVANCED_FACE('',(#3810),#3650,.F.);
#3830=CARTESIAN_POINT('',(-14.,-2.525,-13.));
#3840=DIRECTION('',(1.,0.,0.));
#3850=DIRECTION('',(0.,-1.,0.));
#3860=AXIS2_PLACEMENT_3D('',#3830,#3840,#3850);
#3870=PLANE('',#3860);
#3880=ORIENTED_EDGE('',*,*,#2280,.F.);
#3890=CARTESIAN_POINT('',(-14.,0.,-9.5));
#3900=DIRECTION('',(0.,1.,0.));
#3910=VECTOR('',#3900,1.);
#3920=LINE('',#3890,#3910);
#3930=EDGE_CURVE('',#2190,#3400,#3920,.T.);
#3940=ORIENTED_EDGE('',*,*,#3930,.F.);
#3950=ORIENTED_EDGE('',*,*,#3410,.F.);
#3960=CARTESIAN_POINT('',(-14.,0.,34.5));
#3970=DIRECTION('',(0.,1.,0.));
#3980=VECTOR('',#3970,1.);
#3990=LINE('',#3960,#3980);
#4000=EDGE_CURVE('',#2270,#3320,#3990,.T.);
#4010=ORIENTED_EDGE('',*,*,#4000,.T.);
#4020=EDGE_LOOP('',(#4010,#3950,#3940,#3880));
#4030=FACE_OUTER_BOUND('',#4020,.T.);
#4040=ADVANCED_FACE('',(#4030),#3870,.F.);
#4050=CARTESIAN_POINT('',(-14.5,-2.525,37.5));
#4060=DIRECTION('',(0.,0.,-1.));
#4070=DIRECTION('',(-1.,0.,0.));
#4080=AXIS2_PLACEMENT_3D('',#4050,#4060,#4070);
#4090=PLANE('',#4080);
#4100=ORIENTED_EDGE('',*,*,#2450,.F.);
#4110=CARTESIAN_POINT('',(-11.,0.,37.5));
#4120=DIRECTION('',(0.,1.,0.));
#4130=VECTOR('',#4120,1.);
#4140=LINE('',#4110,#4130);
#4150=EDGE_CURVE('',#2360,#3230,#4140,.T.);
#4160=ORIENTED_EDGE('',*,*,#4150,.F.);
#4170=ORIENTED_EDGE('',*,*,#3240,.F.);
#4180=CARTESIAN_POINT('',(41.,0.,37.5));
#4190=DIRECTION('',(0.,1.,0.));
#4200=VECTOR('',#4190,1.);
#4210=LINE('',#4180,#4200);
#4220=EDGE_CURVE('',#2440,#3150,#4210,.T.);
#4230=ORIENTED_EDGE('',*,*,#4220,.T.);
#4240=EDGE_LOOP('',(#4230,#4170,#4160,#4100));
#4250=FACE_OUTER_BOUND('',#4240,.T.);
#4260=ADVANCED_FACE('',(#4250),#4090,.F.);
#4270=CARTESIAN_POINT('',(44.,0.0250000000000023,-13.));
#4280=DIRECTION('',(-1.,0.,0.));
#4290=DIRECTION('',(0.,1.,0.));
#4300=AXIS2_PLACEMENT_3D('',#4270,#4280,#4290);
#4310=PLANE('',#4300);
#4320=CARTESIAN_POINT('',(44.,0.,-9.5));
#4330=DIRECTION('',(0.,1.,0.));
#4340=VECTOR('',#4330,1.);
#4350=LINE('',#4320,#4340);
#4360=EDGE_CURVE('',#2020,#2980,#4350,.T.);
#4370=ORIENTED_EDGE('',*,*,#4360,.T.);
#4380=ORIENTED_EDGE('',*,*,#2600,.F.);
#4390=CARTESIAN_POINT('',(44.,0.,34.5));
#4400=DIRECTION('',(0.,1.,0.));
#4410=VECTOR('',#4400,1.);
#4420=LINE('',#4390,#4410);
#4430=EDGE_CURVE('',#2530,#3060,#4420,.T.);
#4440=ORIENTED_EDGE('',*,*,#4430,.F.);
#4450=ORIENTED_EDGE('',*,*,#3070,.F.);
#4460=EDGE_LOOP('',(#4450,#4440,#4380,#4370));
#4470=FACE_OUTER_BOUND('',#4460,.T.);
#4480=ADVANCED_FACE('',(#4470),#4310,.F.);
#4490=CARTESIAN_POINT('',(-11.,0.,-9.5));
#4500=DIRECTION('',(0.,1.,0.));
#4510=DIRECTION('',(1.,0.,0.));
#4520=AXIS2_PLACEMENT_3D('',#4490,#4500,#4510);
#4530=CYLINDRICAL_SURFACE('',#4520,3.);
#4540=ORIENTED_EDGE('',*,*,#3500,.F.);
#4550=ORIENTED_EDGE('',*,*,#3930,.T.);
#4560=ORIENTED_EDGE('',*,*,#2200,.T.);
#4570=ORIENTED_EDGE('',*,*,#3710,.F.);
#4580=EDGE_LOOP('',(#4570,#4560,#4550,#4540));
#4590=FACE_OUTER_BOUND('',#4580,.T.);
#4600=ADVANCED_FACE('',(#4590),#4530,.T.);
#4610=CARTESIAN_POINT('',(41.,0.,-9.5));
#4620=DIRECTION('',(0.,-1.,0.));
#4630=DIRECTION('',(-1.,0.,0.));
#4640=AXIS2_PLACEMENT_3D('',#4610,#4620,#4630);
#4650=CYLINDRICAL_SURFACE('',#4640,3.);
#4660=ORIENTED_EDGE('',*,*,#2030,.F.);
#4670=ORIENTED_EDGE('',*,*,#4360,.F.);
#4680=ORIENTED_EDGE('',*,*,#2990,.T.);
#4690=ORIENTED_EDGE('',*,*,#3780,.T.);
#4700=EDGE_LOOP('',(#4690,#4680,#4670,#4660));
#4710=FACE_OUTER_BOUND('',#4700,.T.);
#4720=ADVANCED_FACE('',(#4710),#4650,.T.);
#4730=CARTESIAN_POINT('',(41.,0.,34.5));
#4740=DIRECTION('',(0.,1.,0.));
#4750=DIRECTION('',(1.,0.,0.));
#4760=AXIS2_PLACEMENT_3D('',#4730,#4740,#4750);
#4770=CYLINDRICAL_SURFACE('',#4760,3.);
#4780=ORIENTED_EDGE('',*,*,#3160,.F.);
#4790=ORIENTED_EDGE('',*,*,#4430,.T.);
#4800=ORIENTED_EDGE('',*,*,#2540,.T.);
#4810=ORIENTED_EDGE('',*,*,#4220,.F.);
#4820=EDGE_LOOP('',(#4810,#4800,#4790,#4780));
#4830=FACE_OUTER_BOUND('',#4820,.T.);
#4840=ADVANCED_FACE('',(#4830),#4770,.T.);
#4850=CARTESIAN_POINT('',(-11.,0.,34.5));
#4860=DIRECTION('',(0.,1.,0.));
#4870=DIRECTION('',(1.,0.,0.));
#4880=AXIS2_PLACEMENT_3D('',#4850,#4860,#4870);
#4890=CYLINDRICAL_SURFACE('',#4880,3.);
#4900=ORIENTED_EDGE('',*,*,#3330,.F.);
#4910=ORIENTED_EDGE('',*,*,#4150,.T.);
#4920=ORIENTED_EDGE('',*,*,#2370,.T.);
#4930=ORIENTED_EDGE('',*,*,#4000,.F.);
#4940=EDGE_LOOP('',(#4930,#4920,#4910,#4900));
#4950=FACE_OUTER_BOUND('',#4940,.T.);
#4960=ADVANCED_FACE('',(#4950),#4890,.T.);
#4970=CARTESIAN_POINT('',(2.22044604925031E-16,0.0250000000000008,
1.30315891953141E-15));
#4980=DIRECTION('',(0.,-1.,0.));
#4990=DIRECTION('',(-1.,0.,0.));
#5000=AXIS2_PLACEMENT_3D('',#4970,#4980,#4990);
#5010=CYLINDRICAL_SURFACE('',#5000,3.5);
#5020=ORIENTED_EDGE('',*,*,#1890,.F.);
#5030=ORIENTED_EDGE('',*,*,#1400,.T.);
#5040=ORIENTED_EDGE('',*,*,#2850,.F.);
#5050=ORIENTED_EDGE('',*,*,#1570,.F.);
#5060=EDGE_LOOP('',(#5050,#5040,#5030,#5020));
#5070=FACE_OUTER_BOUND('',#5060,.T.);
#5080=ADVANCED_FACE('',(#5070),#5010,.F.);
#5090=CARTESIAN_POINT('',(2.22044604925032E-16,0.0250000000000052,25.));
#5100=DIRECTION('',(0.,-1.,0.));
#5110=DIRECTION('',(-1.,0.,0.));
#5120=AXIS2_PLACEMENT_3D('',#5090,#5100,#5110);
#5130=CYLINDRICAL_SURFACE('',#5120,3.5);
#5140=ORIENTED_EDGE('',*,*,#2800,.F.);
#5150=ORIENTED_EDGE('',*,*,#1150,.F.);
#5160=ORIENTED_EDGE('',*,*,#1840,.F.);
#5170=ORIENTED_EDGE('',*,*,#980,.T.);
#5180=EDGE_LOOP('',(#5170,#5160,#5150,#5140));
#5190=FACE_OUTER_BOUND('',#5180,.T.);
#5200=ADVANCED_FACE('',(#5190),#5130,.F.);
#5210=CARTESIAN_POINT('',(30.,0.0250000000000052,25.));
#5220=DIRECTION('',(0.,-1.,0.));
#5230=DIRECTION('',(-1.,0.,0.));
#5240=AXIS2_PLACEMENT_3D('',#5210,#5220,#5230);
#5250=CYLINDRICAL_SURFACE('',#5240,3.5);
#5260=ORIENTED_EDGE('',*,*,#140,.T.);
#5270=ORIENTED_EDGE('',*,*,#2700,.F.);
#5280=ORIENTED_EDGE('',*,*,#310,.F.);
#5290=ORIENTED_EDGE('',*,*,#1750,.F.);
#5300=EDGE_LOOP('',(#5290,#5280,#5270,#5260));
#5310=FACE_OUTER_BOUND('',#5300,.T.);
#5320=ADVANCED_FACE('',(#5310),#5250,.F.);
#5330=CARTESIAN_POINT('',(30.,0.0250000000000008,1.30315891953141E-15));
#5340=DIRECTION('',(0.,-1.,0.));
#5350=DIRECTION('',(-1.,0.,0.));
#5360=AXIS2_PLACEMENT_3D('',#5330,#5340,#5350);
#5370=CYLINDRICAL_SURFACE('',#5360,3.5);
#5380=ORIENTED_EDGE('',*,*,#1790,.F.);
#5390=ORIENTED_EDGE('',*,*,#560,.T.);
#5400=ORIENTED_EDGE('',*,*,#2750,.F.);
#5410=ORIENTED_EDGE('',*,*,#730,.F.);
#5420=EDGE_LOOP('',(#5410,#5400,#5390,#5380));
#5430=FACE_OUTER_BOUND('',#5420,.T.);
#5440=ADVANCED_FACE('',(#5430),#5370,.F.);
#5450=CLOSED_SHELL('',(#420,#840,#1260,#1680,#2640,#3600,#3820,#4040,
#4260,#4480,#4600,#4720,#4840,#4960,#5080,#5200,#5320,#5440));
#5460=MANIFOLD_SOLID_BREP('',#5450);
#5470=CARTESIAN_POINT('',(0.,0.,0.));
#5480=DIRECTION('',(0.,0.,1.));
#5490=DIRECTION('',(1.,0.,0.));
#5500=AXIS2_PLACEMENT_3D('',#5470,#5480,#5490);
#5510=APPLICATION_CONTEXT(' ');
#5520=APPLICATION_PROTOCOL_DEFINITION(' ','automotive_design',1998,#5510
);
#5530=PRODUCT_CONTEXT('',#5510,'mechanical');
#5540=PRODUCT_DEFINITION_CONTEXT('part definition',#5510,'design');
#5550=PRODUCT(
'Verbindungslasche-MMS-33_25mm-chem-vernickelt_33.0185.11_PX176091',
'Verbindungslasche-MMS-33_25mm-chem-vernickelt_33.0185.11_PX176091','',(
#5530));
#5560=PRODUCT_RELATED_PRODUCT_CATEGORY('part',' ',(#5550));
#5570=PRODUCT_DEFINITION_FORMATION_WITH_SPECIFIED_SOURCE('','',#5550,
.BOUGHT.);
#5580=PRODUCT_DEFINITION('',' ',#5570,#5540);
#5590=PRODUCT_DEFINITION_SHAPE('','',#5580);
#5600=DIMENSIONAL_EXPONENTS(1.,0.,0.,0.,0.,0.,0.);
#5610=DIMENSIONAL_EXPONENTS(0.,0.,0.,0.,0.,0.,0.);
#5620=DIMENSIONAL_EXPONENTS(0.,0.,0.,0.,0.,0.,0.);
#5630=(LENGTH_UNIT() NAMED_UNIT(*) SI_UNIT(.MILLI.,.METRE.));
#5640=(NAMED_UNIT(*) PLANE_ANGLE_UNIT() SI_UNIT($,.RADIAN.));
#5650=(NAMED_UNIT(*) SI_UNIT($,.STERADIAN.) SOLID_ANGLE_UNIT());
#5660=(GEOMETRIC_REPRESENTATION_CONTEXT(3) 
GLOBAL_UNCERTAINTY_ASSIGNED_CONTEXT((#5670)) 
GLOBAL_UNIT_ASSIGNED_CONTEXT((#5630,#5640,#5650)) REPRESENTATION_CONTEXT
('',''));
#5670=UNCERTAINTY_MEASURE_WITH_UNIT(LENGTH_MEASURE(1.E-6),#5630,
'distance_accuracy_value','maximum gap value');
#5680=ADVANCED_BREP_SHAPE_REPRESENTATION('',(#5500,#5460),#5660);
#5690=SHAPE_DEFINITION_REPRESENTATION(#5590,#5680);
#5700=COLOUR_RGB('',0.690196096897125,0.886274576187134,1.);
#5710=FILL_AREA_STYLE_COLOUR('',#5700);
#5720=FILL_AREA_STYLE('',(#5710));
#5730=SURFACE_STYLE_FILL_AREA(#5720);
#5740=SURFACE_SIDE_STYLE('',(#5730));
#5750=SURFACE_STYLE_USAGE(.BOTH.,#5740);
#5760=PRESENTATION_STYLE_ASSIGNMENT((#5750));
#5770=STYLED_ITEM('',(#5760),#5460);
#5780=DRAUGHTING_MODEL('',(#5770),#5660);
#5790=CARTESIAN_POINT('',(11.,37.5,2.5));
#5800=DIRECTION('',(0.,-1.,0.));
#5810=DIRECTION('',(1.,0.,0.));
#5820=AXIS2_PLACEMENT_3D('',#5790,#5800,#5810);
#5830=ITEM_DEFINED_TRANSFORMATION(
'Verbindungslasche-MMS-33_25mm-chem-vernickelt_33.0185.11_PX176091','',
#5500,#5820);
#5840=APPLICATION_CONTEXT(' ');
#5850=APPLICATION_PROTOCOL_DEFINITION(' ','automotive_design',1998,#5840
);
#5860=PRODUCT_CONTEXT('',#5840,'mechanical');
#5870=PRODUCT_DEFINITION_CONTEXT('part definition',#5840,'design');
#5880=PRODUCT(
'Verbindungslasche-MMS-33_25mm-chem-vernickelt_33.0185.11_PX176091',
'Verbindungslasche-MMS-33_25mm-chem-vernickelt_33.0185.11_PX176091','',(
#5860));
#5890=PRODUCT_RELATED_PRODUCT_CATEGORY('part',' ',(#5880));
#5900=PRODUCT_DEFINITION_FORMATION_WITH_SPECIFIED_SOURCE('','',#5880,
.BOUGHT.);
#5910=PRODUCT_DEFINITION('',' ',#5900,#5870);
#5920=PRODUCT_DEFINITION_SHAPE('','',#5910);
#5930=DIMENSIONAL_EXPONENTS(1.,0.,0.,0.,0.,0.,0.);
#5940=DIMENSIONAL_EXPONENTS(0.,0.,0.,0.,0.,0.,0.);
#5950=DIMENSIONAL_EXPONENTS(0.,0.,0.,0.,0.,0.,0.);
#5960=(LENGTH_UNIT() NAMED_UNIT(*) SI_UNIT(.MILLI.,.METRE.));
#5970=(NAMED_UNIT(*) PLANE_ANGLE_UNIT() SI_UNIT($,.RADIAN.));
#5980=(NAMED_UNIT(*) SI_UNIT($,.STERADIAN.) SOLID_ANGLE_UNIT());
#5990=(GEOMETRIC_REPRESENTATION_CONTEXT(3) 
GLOBAL_UNCERTAINTY_ASSIGNED_CONTEXT((#6000)) 
GLOBAL_UNIT_ASSIGNED_CONTEXT((#5960,#5970,#5980)) REPRESENTATION_CONTEXT
('',''));
#6000=UNCERTAINTY_MEASURE_WITH_UNIT(LENGTH_MEASURE(1.E-6),#5960,
'distance_accuracy_value','maximum gap value');
#6010=SHAPE_REPRESENTATION('',(#5500,#5820),#5990);
#6020=SHAPE_DEFINITION_REPRESENTATION(#5920,#6010);
#6030=(REPRESENTATION_RELATIONSHIP('','',#5680,#6010) 
REPRESENTATION_RELATIONSHIP_WITH_TRANSFORMATION(#5830) 
SHAPE_REPRESENTATION_RELATIONSHIP());
#6040=NEXT_ASSEMBLY_USAGE_OCCURRENCE('1','',
'Verbindungslasche-MMS-33_25mm-chem-vernickelt_33.0185.11_PX176091',
#5910,#5580,'');
#6050=PRODUCT_DEFINITION_SHAPE('','',#6040);
#6060=CONTEXT_DEPENDENT_SHAPE_REPRESENTATION(#6030,#6050);
ENDSEC;
END-ISO-10303-21;
