ISO-10303-21;
HEADER;
FILE_DESCRIPTION(('Creo Elements/Direct Modeling STEP Export'),'2;1');
FILE_NAME(
'//KR-CAD2/PhoenixTemp/karl.letzgus/Konvertierung/33.0246.2_Flansch-MMS-
33_30x30x10-M8.stp','2022-03-18T13:58:07',(''),(''),
'PTC Creo Elements/Direct Modeling STEP processor for AP214 (Solid Model
)',
'PTC Creo Elements/Direct Modeling 19.0C  15-Aug-2015 (C) Parametric Tec
hnology GmbH','');
FILE_SCHEMA(('AUTOMOTIVE_DESIGN { 1 0 10303 214 1 1 1 1 }'));
ENDSEC;
DATA;
#10=CARTESIAN_POINT('',(-11.5,11.5,-0.0300000000000002));
#20=DIRECTION('',(0.,0.,1.));
#30=DIRECTION('',(1.,0.,0.));
#40=AXIS2_PLACEMENT_3D('',#10,#20,#30);
#50=CYLINDRICAL_SURFACE('',#40,2.75);
#60=CARTESIAN_POINT('',(-8.74999999999999,11.5,-0.0300000000000002));
#70=DIRECTION('',(0.,0.,1.));
#80=VECTOR('',#70,1.);
#90=LINE('',#60,#80);
#100=CARTESIAN_POINT('',(-8.74999999999999,11.5,0.));
#110=VERTEX_POINT('',#100);
#120=CARTESIAN_POINT('',(-8.74999999999999,11.5,3.));
#130=VERTEX_POINT('',#120);
#140=EDGE_CURVE('',#110,#130,#90,.T.);
#150=ORIENTED_EDGE('',*,*,#140,.F.);
#160=CARTESIAN_POINT('',(-11.5,11.5,3.));
#170=DIRECTION('',(0.,0.,-1.));
#180=DIRECTION('',(1.,0.,0.));
#190=AXIS2_PLACEMENT_3D('',#160,#170,#180);
#200=CIRCLE('',#190,2.75);
#210=CARTESIAN_POINT('',(-14.25,11.5,3.));
#220=VERTEX_POINT('',#210);
#230=EDGE_CURVE('',#130,#220,#200,.T.);
#240=ORIENTED_EDGE('',*,*,#230,.F.);
#250=CARTESIAN_POINT('',(-14.25,11.5,-0.0300000000000002));
#260=DIRECTION('',(0.,0.,1.));
#270=VECTOR('',#260,1.);
#280=LINE('',#250,#270);
#290=CARTESIAN_POINT('',(-14.25,11.5,0.));
#300=VERTEX_POINT('',#290);
#310=EDGE_CURVE('',#300,#220,#280,.T.);
#320=ORIENTED_EDGE('',*,*,#310,.T.);
#330=CARTESIAN_POINT('',(-11.5,11.5,0.));
#340=DIRECTION('',(0.,0.,1.));
#350=DIRECTION('',(1.,0.,0.));
#360=AXIS2_PLACEMENT_3D('',#330,#340,#350);
#370=CIRCLE('',#360,2.75);
#380=EDGE_CURVE('',#300,#110,#370,.T.);
#390=ORIENTED_EDGE('',*,*,#380,.F.);
#400=EDGE_LOOP('',(#390,#320,#240,#150));
#410=FACE_OUTER_BOUND('',#400,.T.);
#420=ADVANCED_FACE('',(#410),#50,.F.);
#430=CARTESIAN_POINT('',(11.5,-11.5,-0.0300000000000002));
#440=DIRECTION('',(0.,0.,1.));
#450=DIRECTION('',(1.,0.,0.));
#460=AXIS2_PLACEMENT_3D('',#430,#440,#450);
#470=CYLINDRICAL_SURFACE('',#460,2.75);
#480=CARTESIAN_POINT('',(8.75,-11.5,-0.0300000000000002));
#490=DIRECTION('',(0.,0.,1.));
#500=VECTOR('',#490,1.);
#510=LINE('',#480,#500);
#520=CARTESIAN_POINT('',(8.75,-11.5,0.));
#530=VERTEX_POINT('',#520);
#540=CARTESIAN_POINT('',(8.75,-11.5,3.));
#550=VERTEX_POINT('',#540);
#560=EDGE_CURVE('',#530,#550,#510,.T.);
#570=ORIENTED_EDGE('',*,*,#560,.F.);
#580=CARTESIAN_POINT('',(11.5,-11.5,3.));
#590=DIRECTION('',(0.,0.,-1.));
#600=DIRECTION('',(1.,0.,0.));
#610=AXIS2_PLACEMENT_3D('',#580,#590,#600);
#620=CIRCLE('',#610,2.75);
#630=CARTESIAN_POINT('',(14.25,-11.5,3.));
#640=VERTEX_POINT('',#630);
#650=EDGE_CURVE('',#550,#640,#620,.T.);
#660=ORIENTED_EDGE('',*,*,#650,.F.);
#670=CARTESIAN_POINT('',(14.25,-11.5,-0.0300000000000002));
#680=DIRECTION('',(0.,0.,1.));
#690=VECTOR('',#680,1.);
#700=LINE('',#670,#690);
#710=CARTESIAN_POINT('',(14.25,-11.5,0.));
#720=VERTEX_POINT('',#710);
#730=EDGE_CURVE('',#720,#640,#700,.T.);
#740=ORIENTED_EDGE('',*,*,#730,.T.);
#750=CARTESIAN_POINT('',(11.5,-11.5,0.));
#760=DIRECTION('',(0.,0.,1.));
#770=DIRECTION('',(1.,0.,0.));
#780=AXIS2_PLACEMENT_3D('',#750,#760,#770);
#790=CIRCLE('',#780,2.75);
#800=EDGE_CURVE('',#720,#530,#790,.T.);
#810=ORIENTED_EDGE('',*,*,#800,.F.);
#820=EDGE_LOOP('',(#810,#740,#660,#570));
#830=FACE_OUTER_BOUND('',#820,.T.);
#840=ADVANCED_FACE('',(#830),#470,.F.);
#850=CARTESIAN_POINT('',(-15.,-14.28,3.03));
#860=DIRECTION('',(1.,0.,0.));
#870=DIRECTION('',(0.,-1.,0.));
#880=AXIS2_PLACEMENT_3D('',#850,#860,#870);
#890=PLANE('',#880);
#900=CARTESIAN_POINT('',(-15.,-15.,0.));
#910=DIRECTION('',(0.,0.,1.));
#920=VECTOR('',#910,1.);
#930=LINE('',#900,#920);
#940=CARTESIAN_POINT('',(-15.,-15.,0.));
#950=VERTEX_POINT('',#940);
#960=CARTESIAN_POINT('',(-15.,-15.,3.));
#970=VERTEX_POINT('',#960);
#980=EDGE_CURVE('',#950,#970,#930,.T.);
#990=ORIENTED_EDGE('',*,*,#980,.T.);
#1000=CARTESIAN_POINT('',(-15.,0.,0.));
#1010=DIRECTION('',(0.,1.,0.));
#1020=VECTOR('',#1010,1.);
#1030=LINE('',#1000,#1020);
#1040=CARTESIAN_POINT('',(-15.,15.,0.));
#1050=VERTEX_POINT('',#1040);
#1060=EDGE_CURVE('',#950,#1050,#1030,.T.);
#1070=ORIENTED_EDGE('',*,*,#1060,.F.);
#1080=CARTESIAN_POINT('',(-15.,15.,0.));
#1090=DIRECTION('',(0.,0.,1.));
#1100=VECTOR('',#1090,1.);
#1110=LINE('',#1080,#1100);
#1120=CARTESIAN_POINT('',(-15.,15.,3.));
#1130=VERTEX_POINT('',#1120);
#1140=EDGE_CURVE('',#1050,#1130,#1110,.T.);
#1150=ORIENTED_EDGE('',*,*,#1140,.F.);
#1160=CARTESIAN_POINT('',(-15.,0.,3.));
#1170=DIRECTION('',(0.,-1.,0.));
#1180=VECTOR('',#1170,1.);
#1190=LINE('',#1160,#1180);
#1200=EDGE_CURVE('',#1130,#970,#1190,.T.);
#1210=ORIENTED_EDGE('',*,*,#1200,.F.);
#1220=EDGE_LOOP('',(#1210,#1150,#1070,#990));
#1230=FACE_OUTER_BOUND('',#1220,.T.);
#1240=ADVANCED_FACE('',(#1230),#890,.F.);
#1250=CARTESIAN_POINT('',(15.,-14.28,-0.03));
#1260=DIRECTION('',(-1.,0.,0.));
#1270=DIRECTION('',(0.,1.,0.));
#1280=AXIS2_PLACEMENT_3D('',#1250,#1260,#1270);
#1290=PLANE('',#1280);
#1300=CARTESIAN_POINT('',(15.,15.,0.));
#1310=DIRECTION('',(0.,0.,1.));
#1320=VECTOR('',#1310,1.);
#1330=LINE('',#1300,#1320);
#1340=CARTESIAN_POINT('',(15.,15.,0.));
#1350=VERTEX_POINT('',#1340);
#1360=CARTESIAN_POINT('',(15.,15.,3.));
#1370=VERTEX_POINT('',#1360);
#1380=EDGE_CURVE('',#1350,#1370,#1330,.T.);
#1390=ORIENTED_EDGE('',*,*,#1380,.T.);
#1400=CARTESIAN_POINT('',(15.,0.,0.));
#1410=DIRECTION('',(0.,-1.,0.));
#1420=VECTOR('',#1410,1.);
#1430=LINE('',#1400,#1420);
#1440=CARTESIAN_POINT('',(15.,-15.,0.));
#1450=VERTEX_POINT('',#1440);
#1460=EDGE_CURVE('',#1350,#1450,#1430,.T.);
#1470=ORIENTED_EDGE('',*,*,#1460,.F.);
#1480=CARTESIAN_POINT('',(15.,-15.,0.));
#1490=DIRECTION('',(0.,0.,1.));
#1500=VECTOR('',#1490,1.);
#1510=LINE('',#1480,#1500);
#1520=CARTESIAN_POINT('',(15.,-15.,3.));
#1530=VERTEX_POINT('',#1520);
#1540=EDGE_CURVE('',#1450,#1530,#1510,.T.);
#1550=ORIENTED_EDGE('',*,*,#1540,.F.);
#1560=CARTESIAN_POINT('',(15.,0.,3.));
#1570=DIRECTION('',(0.,1.,0.));
#1580=VECTOR('',#1570,1.);
#1590=LINE('',#1560,#1580);
#1600=EDGE_CURVE('',#1530,#1370,#1590,.T.);
#1610=ORIENTED_EDGE('',*,*,#1600,.F.);
#1620=EDGE_LOOP('',(#1610,#1550,#1470,#1390));
#1630=FACE_OUTER_BOUND('',#1620,.T.);
#1640=ADVANCED_FACE('',(#1630),#1290,.F.);
#1650=CARTESIAN_POINT('',(-15.3,-15.3,0.));
#1660=DIRECTION('',(0.,0.,1.));
#1670=DIRECTION('',(1.,0.,0.));
#1680=AXIS2_PLACEMENT_3D('',#1650,#1660,#1670);
#1690=PLANE('',#1680);
#1700=EDGE_CURVE('',#110,#300,#370,.T.);
#1710=ORIENTED_EDGE('',*,*,#1700,.T.);
#1720=ORIENTED_EDGE('',*,*,#380,.T.);
#1730=EDGE_LOOP('',(#1720,#1710));
#1740=FACE_BOUND('',#1730,.T.);
#1750=CARTESIAN_POINT('',(0.,-1.77635683940025E-15,0.));
#1760=DIRECTION('',(0.,0.,1.));
#1770=DIRECTION('',(1.,0.,0.));
#1780=AXIS2_PLACEMENT_3D('',#1750,#1760,#1770);
#1790=CIRCLE('',#1780,3.99999972024994);
#1800=CARTESIAN_POINT('',(3.99999972024994,-1.28649815400081E-15,0.));
#1810=VERTEX_POINT('',#1800);
#1820=CARTESIAN_POINT('',(-3.99999972024994,-1.77635683940025E-15,0.));
#1830=VERTEX_POINT('',#1820);
#1840=EDGE_CURVE('',#1810,#1830,#1790,.T.);
#1850=ORIENTED_EDGE('',*,*,#1840,.T.);
#1860=EDGE_CURVE('',#1830,#1810,#1790,.T.);
#1870=ORIENTED_EDGE('',*,*,#1860,.T.);
#1880=EDGE_LOOP('',(#1870,#1850));
#1890=FACE_BOUND('',#1880,.T.);
#1900=EDGE_CURVE('',#530,#720,#790,.T.);
#1910=ORIENTED_EDGE('',*,*,#1900,.T.);
#1920=ORIENTED_EDGE('',*,*,#800,.T.);
#1930=EDGE_LOOP('',(#1920,#1910));
#1940=FACE_BOUND('',#1930,.T.);
#1950=CARTESIAN_POINT('',(0.,15.,0.));
#1960=DIRECTION('',(1.,0.,0.));
#1970=VECTOR('',#1960,1.);
#1980=LINE('',#1950,#1970);
#1990=EDGE_CURVE('',#1050,#1350,#1980,.T.);
#2000=ORIENTED_EDGE('',*,*,#1990,.T.);
#2010=ORIENTED_EDGE('',*,*,#1060,.T.);
#2020=CARTESIAN_POINT('',(0.,-15.,0.));
#2030=DIRECTION('',(-1.,0.,0.));
#2040=VECTOR('',#2030,1.);
#2050=LINE('',#2020,#2040);
#2060=EDGE_CURVE('',#1450,#950,#2050,.T.);
#2070=ORIENTED_EDGE('',*,*,#2060,.T.);
#2080=ORIENTED_EDGE('',*,*,#1460,.T.);
#2090=EDGE_LOOP('',(#2080,#2070,#2010,#2000));
#2100=FACE_OUTER_BOUND('',#2090,.T.);
#2110=ADVANCED_FACE('',(#1740,#1890,#1940,#2100),#1690,.F.);
#2120=CARTESIAN_POINT('',(-8.5,-7.42820323027551,10.));
#2130=DIRECTION('',(0.,0.,1.));
#2140=DIRECTION('',(1.,0.,0.));
#2150=AXIS2_PLACEMENT_3D('',#2120,#2130,#2140);
#2160=PLANE('',#2150);
#2170=CARTESIAN_POINT('',(0.,-1.77635683940025E-15,10.));
#2180=DIRECTION('',(0.,0.,1.));
#2190=DIRECTION('',(1.,0.,0.));
#2200=AXIS2_PLACEMENT_3D('',#2170,#2180,#2190);
#2210=CIRCLE('',#2200,4.);
#2220=CARTESIAN_POINT('',(4.,-1.77635683940025E-15,10.));
#2230=VERTEX_POINT('',#2220);
#2240=CARTESIAN_POINT('',(-4.,-1.28649811974131E-15,10.));
#2250=VERTEX_POINT('',#2240);
#2260=EDGE_CURVE('',#2230,#2250,#2210,.T.);
#2270=ORIENTED_EDGE('',*,*,#2260,.F.);
#2280=EDGE_CURVE('',#2250,#2230,#2210,.T.);
#2290=ORIENTED_EDGE('',*,*,#2280,.F.);
#2300=EDGE_LOOP('',(#2290,#2270));
#2310=FACE_BOUND('',#2300,.T.);
#2320=CARTESIAN_POINT('',(2.0306834363428E-31,-1.47667450287796E-15,10.)
);
#2330=DIRECTION('',(0.,0.,-1.));
#2340=DIRECTION('',(-1.,0.,0.));
#2350=AXIS2_PLACEMENT_3D('',#2320,#2330,#2340);
#2360=CIRCLE('',#2350,5.50000000000003);
#2370=CARTESIAN_POINT('',(5.50000000000003,-8.03118763346917E-16,10.));
#2380=VERTEX_POINT('',#2370);
#2390=CARTESIAN_POINT('',(-5.50000000000003,-1.47667450287796E-15,10.));
#2400=VERTEX_POINT('',#2390);
#2410=EDGE_CURVE('',#2380,#2400,#2360,.T.);
#2420=ORIENTED_EDGE('',*,*,#2410,.F.);
#2430=EDGE_CURVE('',#2400,#2380,#2360,.T.);
#2440=ORIENTED_EDGE('',*,*,#2430,.F.);
#2450=EDGE_LOOP('',(#2440,#2420));
#2460=FACE_OUTER_BOUND('',#2450,.T.);
#2470=ADVANCED_FACE('',(#2310,#2460),#2160,.T.);
#2480=CARTESIAN_POINT('',(2.0306834363428E-31,-1.47667450287796E-15,
9.495));
#2490=DIRECTION('',(0.,0.,-1.));
#2500=DIRECTION('',(-1.,0.,0.));
#2510=AXIS2_PLACEMENT_3D('',#2480,#2490,#2500);
#2520=CONICAL_SURFACE('',#2510,6.00500000000003,0.785398163397451);
#2530=CARTESIAN_POINT('',(6.00500000000003,-7.41274099989976E-16,9.495))
;
#2540=DIRECTION('',(0.707106781186549,8.65956056235496E-17,
-0.707106781186546));
#2550=VECTOR('',#2540,8.49235244205046);
#2560=LINE('',#2530,#2550);
#2570=CARTESIAN_POINT('',(6.00000000000003,-7.41886423389549E-16,9.5));
#2580=VERTEX_POINT('',#2570);
#2590=EDGE_CURVE('',#2380,#2580,#2560,.T.);
#2600=ORIENTED_EDGE('',*,*,#2590,.T.);
#2610=ORIENTED_EDGE('',*,*,#2430,.T.);
#2620=CARTESIAN_POINT('',(-6.00500000000003,-1.47667450287796E-15,9.495)
);
#2630=DIRECTION('',(-0.707106781186549,0.,-0.707106781186546));
#2640=VECTOR('',#2630,8.49235244205046);
#2650=LINE('',#2620,#2640);
#2660=CARTESIAN_POINT('',(-6.00000000000003,-1.47667450287796E-15,9.5));
#2670=VERTEX_POINT('',#2660);
#2680=EDGE_CURVE('',#2400,#2670,#2650,.T.);
#2690=ORIENTED_EDGE('',*,*,#2680,.F.);
#2700=CARTESIAN_POINT('',(1.0153417181714E-31,3.79171592002019E-17,9.5))
;
#2710=DIRECTION('',(0.,0.,-1.));
#2720=DIRECTION('',(-1.,0.,0.));
#2730=AXIS2_PLACEMENT_3D('',#2700,#2710,#2720);
#2740=CIRCLE('',#2730,6.00000000000003);
#2750=EDGE_CURVE('',#2670,#2580,#2740,.T.);
#2760=ORIENTED_EDGE('',*,*,#2750,.F.);
#2770=EDGE_LOOP('',(#2760,#2690,#2610,#2600));
#2780=FACE_OUTER_BOUND('',#2770,.T.);
#2790=ADVANCED_FACE('',(#2780),#2520,.T.);
#2800=CARTESIAN_POINT('',(0.,1.55250882127837E-15,9.565));
#2810=DIRECTION('',(0.,0.,-1.));
#2820=DIRECTION('',(-1.,0.,0.));
#2830=AXIS2_PLACEMENT_3D('',#2800,#2810,#2820);
#2840=CYLINDRICAL_SURFACE('',#2830,6.00000000000003);
#2850=CARTESIAN_POINT('',(6.00000000000003,2.28729690076678E-15,9.565));
#2860=DIRECTION('',(0.,0.,-1.));
#2870=VECTOR('',#2860,1.);
#2880=LINE('',#2850,#2870);
#2890=CARTESIAN_POINT('',(6.00000000000003,2.28729690076678E-15,3.));
#2900=VERTEX_POINT('',#2890);
#2910=EDGE_CURVE('',#2580,#2900,#2880,.T.);
#2920=ORIENTED_EDGE('',*,*,#2910,.T.);
#2930=ORIENTED_EDGE('',*,*,#2750,.T.);
#2940=CARTESIAN_POINT('',(-6.00000000000003,1.55250882127837E-15,9.565))
;
#2950=DIRECTION('',(0.,0.,-1.));
#2960=VECTOR('',#2950,1.);
#2970=LINE('',#2940,#2960);
#2980=CARTESIAN_POINT('',(-6.00000000000003,1.55250882127837E-15,3.));
#2990=VERTEX_POINT('',#2980);
#3000=EDGE_CURVE('',#2670,#2990,#2970,.T.);
#3010=ORIENTED_EDGE('',*,*,#3000,.F.);
#3020=CARTESIAN_POINT('',(0.,1.55250882127837E-15,3.));
#3030=DIRECTION('',(0.,0.,-1.));
#3040=DIRECTION('',(-1.,0.,0.));
#3050=AXIS2_PLACEMENT_3D('',#3020,#3030,#3040);
#3060=CIRCLE('',#3050,6.00000000000003);
#3070=EDGE_CURVE('',#2990,#2900,#3060,.T.);
#3080=ORIENTED_EDGE('',*,*,#3070,.F.);
#3090=EDGE_LOOP('',(#3080,#3010,#2930,#2920));
#3100=FACE_OUTER_BOUND('',#3090,.T.);
#3110=ADVANCED_FACE('',(#3100),#2840,.T.);
#3120=CARTESIAN_POINT('',(-14.28,-15.,-0.03));
#3130=DIRECTION('',(-0.,1.,0.));
#3140=DIRECTION('',(1.,0.,0.));
#3150=AXIS2_PLACEMENT_3D('',#3120,#3130,#3140);
#3160=PLANE('',#3150);
#3170=ORIENTED_EDGE('',*,*,#1540,.T.);
#3180=ORIENTED_EDGE('',*,*,#2060,.F.);
#3190=ORIENTED_EDGE('',*,*,#980,.F.);
#3200=CARTESIAN_POINT('',(0.,-15.,3.));
#3210=DIRECTION('',(1.,0.,0.));
#3220=VECTOR('',#3210,1.);
#3230=LINE('',#3200,#3220);
#3240=EDGE_CURVE('',#970,#1530,#3230,.T.);
#3250=ORIENTED_EDGE('',*,*,#3240,.F.);
#3260=EDGE_LOOP('',(#3250,#3190,#3180,#3170));
#3270=FACE_OUTER_BOUND('',#3260,.T.);
#3280=ADVANCED_FACE('',(#3270),#3160,.F.);
#3290=CARTESIAN_POINT('',(-14.28,15.,3.03));
#3300=DIRECTION('',(-0.,-1.,-0.));
#3310=DIRECTION('',(-1.,0.,0.));
#3320=AXIS2_PLACEMENT_3D('',#3290,#3300,#3310);
#3330=PLANE('',#3320);
#3340=CARTESIAN_POINT('',(0.,15.,3.));
#3350=DIRECTION('',(-1.,0.,0.));
#3360=VECTOR('',#3350,1.);
#3370=LINE('',#3340,#3360);
#3380=EDGE_CURVE('',#1370,#1130,#3370,.T.);
#3390=ORIENTED_EDGE('',*,*,#3380,.F.);
#3400=ORIENTED_EDGE('',*,*,#1140,.T.);
#3410=ORIENTED_EDGE('',*,*,#1990,.F.);
#3420=ORIENTED_EDGE('',*,*,#1380,.F.);
#3430=EDGE_LOOP('',(#3420,#3410,#3400,#3390));
#3440=FACE_OUTER_BOUND('',#3430,.T.);
#3450=ADVANCED_FACE('',(#3440),#3330,.F.);
#3460=CARTESIAN_POINT('',(-15.3,-15.3,3.));
#3470=DIRECTION('',(0.,0.,1.));
#3480=DIRECTION('',(1.,0.,0.));
#3490=AXIS2_PLACEMENT_3D('',#3460,#3470,#3480);
#3500=PLANE('',#3490);
#3510=EDGE_CURVE('',#2900,#2990,#3060,.T.);
#3520=ORIENTED_EDGE('',*,*,#3510,.T.);
#3530=ORIENTED_EDGE('',*,*,#3070,.T.);
#3540=EDGE_LOOP('',(#3530,#3520));
#3550=FACE_BOUND('',#3540,.T.);
#3560=ORIENTED_EDGE('',*,*,#230,.T.);
#3570=EDGE_CURVE('',#220,#130,#200,.T.);
#3580=ORIENTED_EDGE('',*,*,#3570,.T.);
#3590=EDGE_LOOP('',(#3580,#3560));
#3600=FACE_BOUND('',#3590,.T.);
#3610=ORIENTED_EDGE('',*,*,#650,.T.);
#3620=EDGE_CURVE('',#640,#550,#620,.T.);
#3630=ORIENTED_EDGE('',*,*,#3620,.T.);
#3640=EDGE_LOOP('',(#3630,#3610));
#3650=FACE_BOUND('',#3640,.T.);
#3660=ORIENTED_EDGE('',*,*,#1600,.T.);
#3670=ORIENTED_EDGE('',*,*,#3240,.T.);
#3680=ORIENTED_EDGE('',*,*,#1200,.T.);
#3690=ORIENTED_EDGE('',*,*,#3380,.T.);
#3700=EDGE_LOOP('',(#3690,#3680,#3670,#3660));
#3710=FACE_OUTER_BOUND('',#3700,.T.);
#3720=ADVANCED_FACE('',(#3550,#3600,#3650,#3710),#3500,.T.);
#3730=CARTESIAN_POINT('',(0.,-1.77635683940025E-15,10.));
#3740=DIRECTION('',(0.,0.,1.));
#3750=DIRECTION('',(1.,0.,0.));
#3760=AXIS2_PLACEMENT_3D('',#3730,#3740,#3750);
#3770=CYLINDRICAL_SURFACE('',#3760,3.4);
#3780=CARTESIAN_POINT('',(-3.4,-1.35997692769015E-15,10.));
#3790=DIRECTION('',(0.,0.,1.));
#3800=VECTOR('',#3790,1.);
#3810=LINE('',#3780,#3800);
#3820=CARTESIAN_POINT('',(-3.4,-1.35997692769015E-15,0.346410000000001))
;
#3830=VERTEX_POINT('',#3820);
#3840=CARTESIAN_POINT('',(-3.4,-1.35997692769015E-15,9.65358983848622));
#3850=VERTEX_POINT('',#3840);
#3860=EDGE_CURVE('',#3830,#3850,#3810,.T.);
#3870=ORIENTED_EDGE('',*,*,#3860,.T.);
#3880=CARTESIAN_POINT('',(0.,-1.77635683940025E-15,0.346410000000001));
#3890=DIRECTION('',(0.,0.,1.));
#3900=DIRECTION('',(1.,0.,0.));
#3910=AXIS2_PLACEMENT_3D('',#3880,#3890,#3900);
#3920=CIRCLE('',#3910,3.4);
#3930=CARTESIAN_POINT('',(3.4,-1.77635683940025E-15,0.346410000000001));
#3940=VERTEX_POINT('',#3930);
#3950=EDGE_CURVE('',#3830,#3940,#3920,.T.);
#3960=ORIENTED_EDGE('',*,*,#3950,.F.);
#3970=CARTESIAN_POINT('',(3.4,-1.77635683940025E-15,10.));
#3980=DIRECTION('',(0.,0.,1.));
#3990=VECTOR('',#3980,1.);
#4000=LINE('',#3970,#3990);
#4010=CARTESIAN_POINT('',(3.4,-1.77635683940025E-15,9.65358983848622));
#4020=VERTEX_POINT('',#4010);
#4030=EDGE_CURVE('',#3940,#4020,#4000,.T.);
#4040=ORIENTED_EDGE('',*,*,#4030,.F.);
#4050=CARTESIAN_POINT('',(0.,-1.77635683940025E-15,9.65358983848622));
#4060=DIRECTION('',(0.,0.,1.));
#4070=DIRECTION('',(1.,0.,0.));
#4080=AXIS2_PLACEMENT_3D('',#4050,#4060,#4070);
#4090=CIRCLE('',#4080,3.4);
#4100=EDGE_CURVE('',#3850,#4020,#4090,.T.);
#4110=ORIENTED_EDGE('',*,*,#4100,.T.);
#4120=EDGE_LOOP('',(#4110,#4040,#3960,#3870));
#4130=FACE_OUTER_BOUND('',#4120,.T.);
#4140=ADVANCED_FACE('M8x1.25_4602823',(#4130),#3770,.F.);
#4150=COLOUR_RGB('',1.,0.,0.);
#4160=FILL_AREA_STYLE_COLOUR('',#4150);
#4170=FILL_AREA_STYLE('',(#4160));
#4180=SURFACE_STYLE_FILL_AREA(#4170);
#4190=SURFACE_SIDE_STYLE('',(#4180));
#4200=SURFACE_STYLE_USAGE(.BOTH.,#4190);
#4210=PRESENTATION_STYLE_ASSIGNMENT((#4200));
#4220=CARTESIAN_POINT('',(0.,-1.77635683940025E-15,9.65358983848622));
#4230=DIRECTION('',(0.,0.,1.));
#4240=DIRECTION('',(1.,0.,0.));
#4250=AXIS2_PLACEMENT_3D('',#4220,#4230,#4240);
#4260=CONICAL_SURFACE('',#4250,3.4,1.0471975511966);
#4270=CARTESIAN_POINT('',(3.4,-1.77635683940025E-15,9.65358983848622));
#4280=DIRECTION('',(0.866025403784439,0.,0.5));
#4290=VECTOR('',#4280,3.92598183048945);
#4300=LINE('',#4270,#4290);
#4310=EDGE_CURVE('',#4020,#2230,#4300,.T.);
#4320=ORIENTED_EDGE('',*,*,#4310,.F.);
#4330=ORIENTED_EDGE('',*,*,#2280,.T.);
#4340=CARTESIAN_POINT('',(-3.4,-1.35997692769015E-15,9.65358983848622));
#4350=DIRECTION('',(-0.866025403784439,1.06057523872491E-16,0.5));
#4360=VECTOR('',#4350,3.92598183048945);
#4370=LINE('',#4340,#4360);
#4380=EDGE_CURVE('',#3850,#2250,#4370,.T.);
#4390=ORIENTED_EDGE('',*,*,#4380,.T.);
#4400=ORIENTED_EDGE('',*,*,#4100,.F.);
#4410=EDGE_LOOP('',(#4400,#4390,#4330,#4320));
#4420=FACE_OUTER_BOUND('',#4410,.T.);
#4430=ADVANCED_FACE('',(#4420),#4260,.F.);
#4440=CARTESIAN_POINT('',(0.,-1.77635683940025E-15,0.346410000000001));
#4450=DIRECTION('',(0.,0.,-1.));
#4460=DIRECTION('',(-1.,0.,0.));
#4470=AXIS2_PLACEMENT_3D('',#4440,#4450,#4460);
#4480=CONICAL_SURFACE('',#4470,3.4,1.0471975511966);
#4490=CARTESIAN_POINT('',(-3.4,-1.77635683940025E-15,0.346410000000001))
;
#4500=DIRECTION('',(-0.866025403784438,0.,-0.5));
#4510=VECTOR('',#4500,3.92598183048946);
#4520=LINE('',#4490,#4510);
#4530=EDGE_CURVE('',#3830,#1830,#4520,.T.);
#4540=ORIENTED_EDGE('',*,*,#4530,.F.);
#4550=ORIENTED_EDGE('',*,*,#1860,.F.);
#4560=CARTESIAN_POINT('',(3.4,-1.35997692769015E-15,0.346410000000001));
#4570=DIRECTION('',(0.866025403784438,1.06057523872491E-16,-0.5));
#4580=VECTOR('',#4570,3.92598183048946);
#4590=LINE('',#4560,#4580);
#4600=EDGE_CURVE('',#3940,#1810,#4590,.T.);
#4610=ORIENTED_EDGE('',*,*,#4600,.T.);
#4620=ORIENTED_EDGE('',*,*,#3950,.T.);
#4630=EDGE_LOOP('',(#4620,#4610,#4550,#4540));
#4640=FACE_OUTER_BOUND('',#4630,.T.);
#4650=ADVANCED_FACE('',(#4640),#4480,.F.);
#4660=CARTESIAN_POINT('',(0.,-1.77635683940025E-15,0.346410000000001));
#4670=DIRECTION('',(0.,0.,-1.));
#4680=DIRECTION('',(-1.,0.,0.));
#4690=AXIS2_PLACEMENT_3D('',#4660,#4670,#4680);
#4700=CONICAL_SURFACE('',#4690,3.4,1.0471975511966);
#4710=EDGE_CURVE('',#3940,#3830,#3920,.T.);
#4720=ORIENTED_EDGE('',*,*,#4710,.T.);
#4730=ORIENTED_EDGE('',*,*,#4600,.F.);
#4740=ORIENTED_EDGE('',*,*,#1840,.F.);
#4750=ORIENTED_EDGE('',*,*,#4530,.T.);
#4760=EDGE_LOOP('',(#4750,#4740,#4730,#4720));
#4770=FACE_OUTER_BOUND('',#4760,.T.);
#4780=ADVANCED_FACE('',(#4770),#4700,.F.);
#4790=CARTESIAN_POINT('',(2.0306834363428E-31,-1.47667450287796E-15,
9.495));
#4800=DIRECTION('',(0.,0.,-1.));
#4810=DIRECTION('',(-1.,0.,0.));
#4820=AXIS2_PLACEMENT_3D('',#4790,#4800,#4810);
#4830=CONICAL_SURFACE('',#4820,6.00500000000003,0.785398163397451);
#4840=ORIENTED_EDGE('',*,*,#2410,.T.);
#4850=ORIENTED_EDGE('',*,*,#2590,.F.);
#4860=EDGE_CURVE('',#2580,#2670,#2740,.T.);
#4870=ORIENTED_EDGE('',*,*,#4860,.F.);
#4880=ORIENTED_EDGE('',*,*,#2680,.T.);
#4890=EDGE_LOOP('',(#4880,#4870,#4850,#4840));
#4900=FACE_OUTER_BOUND('',#4890,.T.);
#4910=ADVANCED_FACE('',(#4900),#4830,.T.);
#4920=CARTESIAN_POINT('',(0.,-1.77635683940025E-15,9.65358983848622));
#4930=DIRECTION('',(0.,0.,1.));
#4940=DIRECTION('',(1.,0.,0.));
#4950=AXIS2_PLACEMENT_3D('',#4920,#4930,#4940);
#4960=CONICAL_SURFACE('',#4950,3.4,1.0471975511966);
#4970=EDGE_CURVE('',#4020,#3850,#4090,.T.);
#4980=ORIENTED_EDGE('',*,*,#4970,.F.);
#4990=ORIENTED_EDGE('',*,*,#4380,.F.);
#5000=ORIENTED_EDGE('',*,*,#2260,.T.);
#5010=ORIENTED_EDGE('',*,*,#4310,.T.);
#5020=EDGE_LOOP('',(#5010,#5000,#4990,#4980));
#5030=FACE_OUTER_BOUND('',#5020,.T.);
#5040=ADVANCED_FACE('',(#5030),#4960,.F.);
#5050=CARTESIAN_POINT('',(11.5,-11.5,-0.0300000000000002));
#5060=DIRECTION('',(0.,0.,1.));
#5070=DIRECTION('',(1.,0.,0.));
#5080=AXIS2_PLACEMENT_3D('',#5050,#5060,#5070);
#5090=CYLINDRICAL_SURFACE('',#5080,2.75);
#5100=ORIENTED_EDGE('',*,*,#560,.T.);
#5110=ORIENTED_EDGE('',*,*,#1900,.F.);
#5120=ORIENTED_EDGE('',*,*,#730,.F.);
#5130=ORIENTED_EDGE('',*,*,#3620,.F.);
#5140=EDGE_LOOP('',(#5130,#5120,#5110,#5100));
#5150=FACE_OUTER_BOUND('',#5140,.T.);
#5160=ADVANCED_FACE('',(#5150),#5090,.F.);
#5170=CARTESIAN_POINT('',(-11.5,11.5,-0.0300000000000002));
#5180=DIRECTION('',(0.,0.,1.));
#5190=DIRECTION('',(1.,0.,0.));
#5200=AXIS2_PLACEMENT_3D('',#5170,#5180,#5190);
#5210=CYLINDRICAL_SURFACE('',#5200,2.75);
#5220=ORIENTED_EDGE('',*,*,#140,.T.);
#5230=ORIENTED_EDGE('',*,*,#1700,.F.);
#5240=ORIENTED_EDGE('',*,*,#310,.F.);
#5250=ORIENTED_EDGE('',*,*,#3570,.F.);
#5260=EDGE_LOOP('',(#5250,#5240,#5230,#5220));
#5270=FACE_OUTER_BOUND('',#5260,.T.);
#5280=ADVANCED_FACE('',(#5270),#5210,.F.);
#5290=CARTESIAN_POINT('',(0.,1.55250882127837E-15,9.565));
#5300=DIRECTION('',(0.,0.,-1.));
#5310=DIRECTION('',(-1.,0.,0.));
#5320=AXIS2_PLACEMENT_3D('',#5290,#5300,#5310);
#5330=CYLINDRICAL_SURFACE('',#5320,6.00000000000003);
#5340=ORIENTED_EDGE('',*,*,#4860,.T.);
#5350=ORIENTED_EDGE('',*,*,#2910,.F.);
#5360=ORIENTED_EDGE('',*,*,#3510,.F.);
#5370=ORIENTED_EDGE('',*,*,#3000,.T.);
#5380=EDGE_LOOP('',(#5370,#5360,#5350,#5340));
#5390=FACE_OUTER_BOUND('',#5380,.T.);
#5400=ADVANCED_FACE('',(#5390),#5330,.T.);
#5410=CARTESIAN_POINT('',(0.,-1.77635683940025E-15,10.));
#5420=DIRECTION('',(0.,0.,1.));
#5430=DIRECTION('',(1.,0.,0.));
#5440=AXIS2_PLACEMENT_3D('',#5410,#5420,#5430);
#5450=CYLINDRICAL_SURFACE('',#5440,3.4);
#5460=ORIENTED_EDGE('',*,*,#4710,.F.);
#5470=ORIENTED_EDGE('',*,*,#3860,.F.);
#5480=ORIENTED_EDGE('',*,*,#4970,.T.);
#5490=ORIENTED_EDGE('',*,*,#4030,.T.);
#5500=EDGE_LOOP('',(#5490,#5480,#5470,#5460));
#5510=FACE_OUTER_BOUND('',#5500,.T.);
#5520=ADVANCED_FACE('',(#5510),#5450,.F.);
#5530=COLOUR_RGB('',1.,0.,0.);
#5540=FILL_AREA_STYLE_COLOUR('',#5530);
#5550=FILL_AREA_STYLE('',(#5540));
#5560=SURFACE_STYLE_FILL_AREA(#5550);
#5570=SURFACE_SIDE_STYLE('',(#5560));
#5580=SURFACE_STYLE_USAGE(.BOTH.,#5570);
#5590=PRESENTATION_STYLE_ASSIGNMENT((#5580));
#5600=CLOSED_SHELL('',(#420,#840,#1240,#1640,#2110,#2470,#2790,#3110,
#3280,#3450,#3720,#4140,#4430,#4650,#4780,#4910,#5040,#5160,#5280,#5400,
#5520));
#5610=MANIFOLD_SOLID_BREP('',#5600);
#5620=CARTESIAN_POINT('',(0.,0.,0.));
#5630=DIRECTION('',(0.,0.,1.));
#5640=DIRECTION('',(1.,0.,0.));
#5650=AXIS2_PLACEMENT_3D('',#5620,#5630,#5640);
#5660=APPLICATION_CONTEXT(' ');
#5670=APPLICATION_PROTOCOL_DEFINITION(' ','automotive_design',1998,#5660
);
#5680=PRODUCT_CONTEXT('',#5660,'mechanical');
#5690=PRODUCT_DEFINITION_CONTEXT('part definition',#5660,'design');
#5700=PRODUCT('Flansch-MMS-33_30x30x10-M8_33.0246.2_PX176133',
'Flansch-MMS-33_30x30x10-M8_33.0246.2_PX176133','',(#5680));
#5710=PRODUCT_RELATED_PRODUCT_CATEGORY('part',' ',(#5700));
#5720=PRODUCT_DEFINITION_FORMATION_WITH_SPECIFIED_SOURCE('','',#5700,
.BOUGHT.);
#5730=PRODUCT_DEFINITION('',' ',#5720,#5690);
#5740=PRODUCT_DEFINITION_SHAPE('','',#5730);
#5750=DIMENSIONAL_EXPONENTS(1.,0.,0.,0.,0.,0.,0.);
#5760=DIMENSIONAL_EXPONENTS(0.,0.,0.,0.,0.,0.,0.);
#5770=DIMENSIONAL_EXPONENTS(0.,0.,0.,0.,0.,0.,0.);
#5780=(LENGTH_UNIT() NAMED_UNIT(*) SI_UNIT(.MILLI.,.METRE.));
#5790=(NAMED_UNIT(*) PLANE_ANGLE_UNIT() SI_UNIT($,.RADIAN.));
#5800=(NAMED_UNIT(*) SI_UNIT($,.STERADIAN.) SOLID_ANGLE_UNIT());
#5810=(GEOMETRIC_REPRESENTATION_CONTEXT(3) 
GLOBAL_UNCERTAINTY_ASSIGNED_CONTEXT((#5820)) 
GLOBAL_UNIT_ASSIGNED_CONTEXT((#5780,#5790,#5800)) REPRESENTATION_CONTEXT
('',''));
#5820=UNCERTAINTY_MEASURE_WITH_UNIT(LENGTH_MEASURE(1.E-6),#5780,
'distance_accuracy_value','maximum gap value');
#5830=ADVANCED_BREP_SHAPE_REPRESENTATION('',(#5650,#5610),#5810);
#5840=SHAPE_DEFINITION_REPRESENTATION(#5740,#5830);
#5850=COLOUR_RGB('',0.690196096897125,0.886274576187134,1.);
#5860=FILL_AREA_STYLE_COLOUR('',#5850);
#5870=FILL_AREA_STYLE('',(#5860));
#5880=SURFACE_STYLE_FILL_AREA(#5870);
#5890=SURFACE_SIDE_STYLE('',(#5880));
#5900=SURFACE_STYLE_USAGE(.BOTH.,#5890);
#5910=PRESENTATION_STYLE_ASSIGNMENT((#5900));
#5920=STYLED_ITEM('',(#5910),#5610);
#5930=OVER_RIDING_STYLED_ITEM('',(#4210),#4140,#5920);
#5940=OVER_RIDING_STYLED_ITEM('',(#5590),#5520,#5920);
#5950=DRAUGHTING_MODEL('',(#5920,#5930,#5940),#5810);
ENDSEC;
END-ISO-10303-21;
