ISO-10303-21;
HEADER;
FILE_DESCRIPTION(('Creo Elements/Direct Modeling STEP Export'),'2;1');
FILE_NAME(
'//KR-CAD2/PhoenixTemp/karl.letzgus/Konvertierung/33.0246.7_Flansch-MMS-
33_30x30-M10.stp','2022-03-18T13:58:08',(''),(''),
'PTC Creo Elements/Direct Modeling STEP processor for AP214 (Solid Model
)',
'PTC Creo Elements/Direct Modeling 19.0C  15-Aug-2015 (C) Parametric Tec
hnology GmbH','');
FILE_SCHEMA(('AUTOMOTIVE_DESIGN { 1 0 10303 214 1 1 1 1 }'));
ENDSEC;
DATA;
#10=CARTESIAN_POINT('',(-11.5,11.5,-0.0300000000000002));
#20=DIRECTION('',(0.,0.,1.));
#30=DIRECTION('',(1.,0.,0.));
#40=AXIS2_PLACEMENT_3D('',#10,#20,#30);
#50=CYLINDRICAL_SURFACE('',#40,2.75);
#60=CARTESIAN_POINT('',(-8.74999999999999,11.5,-0.0300000000000002));
#70=DIRECTION('',(0.,0.,1.));
#80=VECTOR('',#70,1.);
#90=LINE('',#60,#80);
#100=CARTESIAN_POINT('',(-8.74999999999999,11.5,0.));
#110=VERTEX_POINT('',#100);
#120=CARTESIAN_POINT('',(-8.74999999999999,11.5,3.));
#130=VERTEX_POINT('',#120);
#140=EDGE_CURVE('',#110,#130,#90,.T.);
#150=ORIENTED_EDGE('',*,*,#140,.F.);
#160=CARTESIAN_POINT('',(-11.5,11.5,3.));
#170=DIRECTION('',(0.,0.,-1.));
#180=DIRECTION('',(1.,0.,0.));
#190=AXIS2_PLACEMENT_3D('',#160,#170,#180);
#200=CIRCLE('',#190,2.75);
#210=CARTESIAN_POINT('',(-14.25,11.5,3.));
#220=VERTEX_POINT('',#210);
#230=EDGE_CURVE('',#130,#220,#200,.T.);
#240=ORIENTED_EDGE('',*,*,#230,.F.);
#250=CARTESIAN_POINT('',(-14.25,11.5,-0.0300000000000002));
#260=DIRECTION('',(0.,0.,1.));
#270=VECTOR('',#260,1.);
#280=LINE('',#250,#270);
#290=CARTESIAN_POINT('',(-14.25,11.5,0.));
#300=VERTEX_POINT('',#290);
#310=EDGE_CURVE('',#300,#220,#280,.T.);
#320=ORIENTED_EDGE('',*,*,#310,.T.);
#330=CARTESIAN_POINT('',(-11.5,11.5,0.));
#340=DIRECTION('',(0.,0.,1.));
#350=DIRECTION('',(1.,0.,0.));
#360=AXIS2_PLACEMENT_3D('',#330,#340,#350);
#370=CIRCLE('',#360,2.75);
#380=EDGE_CURVE('',#300,#110,#370,.T.);
#390=ORIENTED_EDGE('',*,*,#380,.F.);
#400=EDGE_LOOP('',(#390,#320,#240,#150));
#410=FACE_OUTER_BOUND('',#400,.T.);
#420=ADVANCED_FACE('',(#410),#50,.F.);
#430=CARTESIAN_POINT('',(11.5,-11.5,-0.0300000000000002));
#440=DIRECTION('',(0.,0.,1.));
#450=DIRECTION('',(1.,0.,0.));
#460=AXIS2_PLACEMENT_3D('',#430,#440,#450);
#470=CYLINDRICAL_SURFACE('',#460,2.75);
#480=CARTESIAN_POINT('',(8.75,-11.5,-0.0300000000000002));
#490=DIRECTION('',(0.,0.,1.));
#500=VECTOR('',#490,1.);
#510=LINE('',#480,#500);
#520=CARTESIAN_POINT('',(8.75,-11.5,0.));
#530=VERTEX_POINT('',#520);
#540=CARTESIAN_POINT('',(8.75,-11.5,3.));
#550=VERTEX_POINT('',#540);
#560=EDGE_CURVE('',#530,#550,#510,.T.);
#570=ORIENTED_EDGE('',*,*,#560,.F.);
#580=CARTESIAN_POINT('',(11.5,-11.5,3.));
#590=DIRECTION('',(0.,0.,-1.));
#600=DIRECTION('',(1.,0.,0.));
#610=AXIS2_PLACEMENT_3D('',#580,#590,#600);
#620=CIRCLE('',#610,2.75);
#630=CARTESIAN_POINT('',(14.25,-11.5,3.));
#640=VERTEX_POINT('',#630);
#650=EDGE_CURVE('',#550,#640,#620,.T.);
#660=ORIENTED_EDGE('',*,*,#650,.F.);
#670=CARTESIAN_POINT('',(14.25,-11.5,-0.0300000000000002));
#680=DIRECTION('',(0.,0.,1.));
#690=VECTOR('',#680,1.);
#700=LINE('',#670,#690);
#710=CARTESIAN_POINT('',(14.25,-11.5,0.));
#720=VERTEX_POINT('',#710);
#730=EDGE_CURVE('',#720,#640,#700,.T.);
#740=ORIENTED_EDGE('',*,*,#730,.T.);
#750=CARTESIAN_POINT('',(11.5,-11.5,0.));
#760=DIRECTION('',(0.,0.,1.));
#770=DIRECTION('',(1.,0.,0.));
#780=AXIS2_PLACEMENT_3D('',#750,#760,#770);
#790=CIRCLE('',#780,2.75);
#800=EDGE_CURVE('',#720,#530,#790,.T.);
#810=ORIENTED_EDGE('',*,*,#800,.F.);
#820=EDGE_LOOP('',(#810,#740,#660,#570));
#830=FACE_OUTER_BOUND('',#820,.T.);
#840=ADVANCED_FACE('',(#830),#470,.F.);
#850=CARTESIAN_POINT('',(-15.,-14.28,3.03));
#860=DIRECTION('',(1.,0.,0.));
#870=DIRECTION('',(0.,-1.,0.));
#880=AXIS2_PLACEMENT_3D('',#850,#860,#870);
#890=PLANE('',#880);
#900=CARTESIAN_POINT('',(-15.,0.,3.));
#910=DIRECTION('',(0.,-1.,0.));
#920=VECTOR('',#910,1.);
#930=LINE('',#900,#920);
#940=CARTESIAN_POINT('',(-15.,15.,3.));
#950=VERTEX_POINT('',#940);
#960=CARTESIAN_POINT('',(-15.,-3.,3.));
#970=VERTEX_POINT('',#960);
#980=EDGE_CURVE('',#950,#970,#930,.T.);
#990=ORIENTED_EDGE('',*,*,#980,.F.);
#1000=CARTESIAN_POINT('',(-15.,-3.,0.));
#1010=DIRECTION('',(0.,0.,1.));
#1020=VECTOR('',#1010,1.);
#1030=LINE('',#1000,#1020);
#1040=CARTESIAN_POINT('',(-15.,-3.,0.));
#1050=VERTEX_POINT('',#1040);
#1060=EDGE_CURVE('',#1050,#970,#1030,.T.);
#1070=ORIENTED_EDGE('',*,*,#1060,.T.);
#1080=CARTESIAN_POINT('',(-15.,0.,0.));
#1090=DIRECTION('',(0.,1.,0.));
#1100=VECTOR('',#1090,1.);
#1110=LINE('',#1080,#1100);
#1120=CARTESIAN_POINT('',(-15.,15.,0.));
#1130=VERTEX_POINT('',#1120);
#1140=EDGE_CURVE('',#1050,#1130,#1110,.T.);
#1150=ORIENTED_EDGE('',*,*,#1140,.F.);
#1160=CARTESIAN_POINT('',(-15.,15.,0.));
#1170=DIRECTION('',(0.,0.,1.));
#1180=VECTOR('',#1170,1.);
#1190=LINE('',#1160,#1180);
#1200=EDGE_CURVE('',#1130,#950,#1190,.T.);
#1210=ORIENTED_EDGE('',*,*,#1200,.F.);
#1220=EDGE_LOOP('',(#1210,#1150,#1070,#990));
#1230=FACE_OUTER_BOUND('',#1220,.T.);
#1240=ADVANCED_FACE('',(#1230),#890,.F.);
#1250=CARTESIAN_POINT('',(15.,-14.28,-0.03));
#1260=DIRECTION('',(-1.,0.,0.));
#1270=DIRECTION('',(0.,1.,0.));
#1280=AXIS2_PLACEMENT_3D('',#1250,#1260,#1270);
#1290=PLANE('',#1280);
#1300=CARTESIAN_POINT('',(15.,15.,0.));
#1310=DIRECTION('',(0.,0.,1.));
#1320=VECTOR('',#1310,1.);
#1330=LINE('',#1300,#1320);
#1340=CARTESIAN_POINT('',(15.,15.,0.));
#1350=VERTEX_POINT('',#1340);
#1360=CARTESIAN_POINT('',(15.,15.,3.));
#1370=VERTEX_POINT('',#1360);
#1380=EDGE_CURVE('',#1350,#1370,#1330,.T.);
#1390=ORIENTED_EDGE('',*,*,#1380,.T.);
#1400=CARTESIAN_POINT('',(15.,0.,0.));
#1410=DIRECTION('',(0.,-1.,0.));
#1420=VECTOR('',#1410,1.);
#1430=LINE('',#1400,#1420);
#1440=CARTESIAN_POINT('',(15.,-15.,0.));
#1450=VERTEX_POINT('',#1440);
#1460=EDGE_CURVE('',#1350,#1450,#1430,.T.);
#1470=ORIENTED_EDGE('',*,*,#1460,.F.);
#1480=CARTESIAN_POINT('',(15.,-15.,0.));
#1490=DIRECTION('',(0.,0.,1.));
#1500=VECTOR('',#1490,1.);
#1510=LINE('',#1480,#1500);
#1520=CARTESIAN_POINT('',(15.,-15.,3.));
#1530=VERTEX_POINT('',#1520);
#1540=EDGE_CURVE('',#1450,#1530,#1510,.T.);
#1550=ORIENTED_EDGE('',*,*,#1540,.F.);
#1560=CARTESIAN_POINT('',(15.,0.,3.));
#1570=DIRECTION('',(0.,1.,0.));
#1580=VECTOR('',#1570,1.);
#1590=LINE('',#1560,#1580);
#1600=EDGE_CURVE('',#1530,#1370,#1590,.T.);
#1610=ORIENTED_EDGE('',*,*,#1600,.F.);
#1620=EDGE_LOOP('',(#1610,#1550,#1470,#1390));
#1630=FACE_OUTER_BOUND('',#1620,.T.);
#1640=ADVANCED_FACE('',(#1630),#1290,.F.);
#1650=CARTESIAN_POINT('',(-15.3,-15.3,0.));
#1660=DIRECTION('',(0.,0.,1.));
#1670=DIRECTION('',(1.,0.,0.));
#1680=AXIS2_PLACEMENT_3D('',#1650,#1660,#1670);
#1690=PLANE('',#1680);
#1700=EDGE_CURVE('',#530,#720,#790,.T.);
#1710=ORIENTED_EDGE('',*,*,#1700,.T.);
#1720=ORIENTED_EDGE('',*,*,#800,.T.);
#1730=EDGE_LOOP('',(#1720,#1710));
#1740=FACE_BOUND('',#1730,.T.);
#1750=CARTESIAN_POINT('',(0.,-1.77635683940025E-15,0.));
#1760=DIRECTION('',(0.,0.,1.));
#1770=DIRECTION('',(1.,0.,0.));
#1780=AXIS2_PLACEMENT_3D('',#1750,#1760,#1770);
#1790=CIRCLE('',#1780,5.00000051633782);
#1800=CARTESIAN_POINT('',(5.00000051633782,-1.16403337659343E-15,
-5.55111512312578E-17));
#1810=VERTEX_POINT('',#1800);
#1820=CARTESIAN_POINT('',(-5.00000051633782,-1.77635683940025E-15,
-5.55111512312578E-17));
#1830=VERTEX_POINT('',#1820);
#1840=EDGE_CURVE('',#1810,#1830,#1790,.T.);
#1850=ORIENTED_EDGE('',*,*,#1840,.T.);
#1860=EDGE_CURVE('',#1830,#1810,#1790,.T.);
#1870=ORIENTED_EDGE('',*,*,#1860,.T.);
#1880=EDGE_LOOP('',(#1870,#1850));
#1890=FACE_BOUND('',#1880,.T.);
#1900=EDGE_CURVE('',#110,#300,#370,.T.);
#1910=ORIENTED_EDGE('',*,*,#1900,.T.);
#1920=ORIENTED_EDGE('',*,*,#380,.T.);
#1930=EDGE_LOOP('',(#1920,#1910));
#1940=FACE_BOUND('',#1930,.T.);
#1950=ORIENTED_EDGE('',*,*,#1140,.T.);
#1960=CARTESIAN_POINT('',(-3.,-3.,0.));
#1970=DIRECTION('',(0.,0.,1.));
#1980=DIRECTION('',(0.,-1.,0.));
#1990=AXIS2_PLACEMENT_3D('',#1960,#1970,#1980);
#2000=CIRCLE('',#1990,12.);
#2010=CARTESIAN_POINT('',(-3.,-15.,0.));
#2020=VERTEX_POINT('',#2010);
#2030=EDGE_CURVE('',#1050,#2020,#2000,.T.);
#2040=ORIENTED_EDGE('',*,*,#2030,.F.);
#2050=CARTESIAN_POINT('',(0.,-15.,0.));
#2060=DIRECTION('',(-1.,0.,0.));
#2070=VECTOR('',#2060,1.);
#2080=LINE('',#2050,#2070);
#2090=EDGE_CURVE('',#1450,#2020,#2080,.T.);
#2100=ORIENTED_EDGE('',*,*,#2090,.T.);
#2110=ORIENTED_EDGE('',*,*,#1460,.T.);
#2120=CARTESIAN_POINT('',(0.,15.,0.));
#2130=DIRECTION('',(1.,0.,0.));
#2140=VECTOR('',#2130,1.);
#2150=LINE('',#2120,#2140);
#2160=EDGE_CURVE('',#1130,#1350,#2150,.T.);
#2170=ORIENTED_EDGE('',*,*,#2160,.T.);
#2180=EDGE_LOOP('',(#2170,#2110,#2100,#2040,#1950));
#2190=FACE_OUTER_BOUND('',#2180,.T.);
#2200=ADVANCED_FACE('',(#1740,#1890,#1940,#2190),#1690,.F.);
#2210=CARTESIAN_POINT('',(-8.5,-7.42820323027551,10.));
#2220=DIRECTION('',(0.,0.,1.));
#2230=DIRECTION('',(1.,0.,0.));
#2240=AXIS2_PLACEMENT_3D('',#2210,#2220,#2230);
#2250=PLANE('',#2240);
#2260=CARTESIAN_POINT('',(0.,-1.77635683940025E-15,10.));
#2270=DIRECTION('',(0.,0.,1.));
#2280=DIRECTION('',(1.,0.,0.));
#2290=AXIS2_PLACEMENT_3D('',#2260,#2270,#2280);
#2300=CIRCLE('',#2290,5.);
#2310=CARTESIAN_POINT('',(5.,-1.77635683940025E-15,10.));
#2320=VERTEX_POINT('',#2310);
#2330=CARTESIAN_POINT('',(-5.,-1.16403343982657E-15,10.));
#2340=VERTEX_POINT('',#2330);
#2350=EDGE_CURVE('',#2320,#2340,#2300,.T.);
#2360=ORIENTED_EDGE('',*,*,#2350,.F.);
#2370=EDGE_CURVE('',#2340,#2320,#2300,.T.);
#2380=ORIENTED_EDGE('',*,*,#2370,.F.);
#2390=EDGE_LOOP('',(#2380,#2360));
#2400=FACE_BOUND('',#2390,.T.);
#2410=CARTESIAN_POINT('',(2.0306834363428E-31,-1.47667450287796E-15,10.)
);
#2420=DIRECTION('',(0.,0.,-1.));
#2430=DIRECTION('',(-1.,0.,0.));
#2440=AXIS2_PLACEMENT_3D('',#2410,#2420,#2430);
#2450=CIRCLE('',#2440,5.50000000000003);
#2460=CARTESIAN_POINT('',(5.50000000000003,-8.03118763346917E-16,10.));
#2470=VERTEX_POINT('',#2460);
#2480=CARTESIAN_POINT('',(-5.50000000000003,-1.47667450287796E-15,10.));
#2490=VERTEX_POINT('',#2480);
#2500=EDGE_CURVE('',#2470,#2490,#2450,.T.);
#2510=ORIENTED_EDGE('',*,*,#2500,.F.);
#2520=EDGE_CURVE('',#2490,#2470,#2450,.T.);
#2530=ORIENTED_EDGE('',*,*,#2520,.F.);
#2540=EDGE_LOOP('',(#2530,#2510));
#2550=FACE_OUTER_BOUND('',#2540,.T.);
#2560=ADVANCED_FACE('',(#2400,#2550),#2250,.T.);
#2570=CARTESIAN_POINT('',(2.0306834363428E-31,-1.47667450287796E-15,
9.495));
#2580=DIRECTION('',(0.,0.,-1.));
#2590=DIRECTION('',(-1.,0.,0.));
#2600=AXIS2_PLACEMENT_3D('',#2570,#2580,#2590);
#2610=CONICAL_SURFACE('',#2600,6.00500000000003,0.785398163397451);
#2620=CARTESIAN_POINT('',(6.00500000000003,-7.41274099989976E-16,9.495))
;
#2630=DIRECTION('',(0.707106781186549,8.65956056235496E-17,
-0.707106781186546));
#2640=VECTOR('',#2630,8.49235244205046);
#2650=LINE('',#2620,#2640);
#2660=CARTESIAN_POINT('',(6.00000000000003,-7.41886423389549E-16,9.5));
#2670=VERTEX_POINT('',#2660);
#2680=EDGE_CURVE('',#2470,#2670,#2650,.T.);
#2690=ORIENTED_EDGE('',*,*,#2680,.T.);
#2700=ORIENTED_EDGE('',*,*,#2520,.T.);
#2710=CARTESIAN_POINT('',(-6.00500000000003,-1.47667450287796E-15,9.495)
);
#2720=DIRECTION('',(-0.707106781186549,0.,-0.707106781186546));
#2730=VECTOR('',#2720,8.49235244205046);
#2740=LINE('',#2710,#2730);
#2750=CARTESIAN_POINT('',(-6.00000000000003,-1.47667450287796E-15,9.5));
#2760=VERTEX_POINT('',#2750);
#2770=EDGE_CURVE('',#2490,#2760,#2740,.T.);
#2780=ORIENTED_EDGE('',*,*,#2770,.F.);
#2790=CARTESIAN_POINT('',(1.0153417181714E-31,3.79171592002019E-17,9.5))
;
#2800=DIRECTION('',(0.,0.,-1.));
#2810=DIRECTION('',(-1.,0.,0.));
#2820=AXIS2_PLACEMENT_3D('',#2790,#2800,#2810);
#2830=CIRCLE('',#2820,6.00000000000003);
#2840=EDGE_CURVE('',#2760,#2670,#2830,.T.);
#2850=ORIENTED_EDGE('',*,*,#2840,.F.);
#2860=EDGE_LOOP('',(#2850,#2780,#2700,#2690));
#2870=FACE_OUTER_BOUND('',#2860,.T.);
#2880=ADVANCED_FACE('',(#2870),#2610,.T.);
#2890=CARTESIAN_POINT('',(0.,1.55250882127837E-15,9.565));
#2900=DIRECTION('',(0.,0.,-1.));
#2910=DIRECTION('',(-1.,0.,0.));
#2920=AXIS2_PLACEMENT_3D('',#2890,#2900,#2910);
#2930=CYLINDRICAL_SURFACE('',#2920,6.00000000000003);
#2940=CARTESIAN_POINT('',(6.00000000000003,2.28729690076678E-15,9.565));
#2950=DIRECTION('',(0.,0.,-1.));
#2960=VECTOR('',#2950,1.);
#2970=LINE('',#2940,#2960);
#2980=CARTESIAN_POINT('',(6.00000000000003,2.28729690076678E-15,3.));
#2990=VERTEX_POINT('',#2980);
#3000=EDGE_CURVE('',#2670,#2990,#2970,.T.);
#3010=ORIENTED_EDGE('',*,*,#3000,.T.);
#3020=ORIENTED_EDGE('',*,*,#2840,.T.);
#3030=CARTESIAN_POINT('',(-6.00000000000003,1.55250882127837E-15,9.565))
;
#3040=DIRECTION('',(0.,0.,-1.));
#3050=VECTOR('',#3040,1.);
#3060=LINE('',#3030,#3050);
#3070=CARTESIAN_POINT('',(-6.00000000000003,1.55250882127837E-15,3.));
#3080=VERTEX_POINT('',#3070);
#3090=EDGE_CURVE('',#2760,#3080,#3060,.T.);
#3100=ORIENTED_EDGE('',*,*,#3090,.F.);
#3110=CARTESIAN_POINT('',(0.,1.55250882127837E-15,3.));
#3120=DIRECTION('',(0.,0.,-1.));
#3130=DIRECTION('',(-1.,0.,0.));
#3140=AXIS2_PLACEMENT_3D('',#3110,#3120,#3130);
#3150=CIRCLE('',#3140,6.00000000000003);
#3160=EDGE_CURVE('',#3080,#2990,#3150,.T.);
#3170=ORIENTED_EDGE('',*,*,#3160,.F.);
#3180=EDGE_LOOP('',(#3170,#3100,#3020,#3010));
#3190=FACE_OUTER_BOUND('',#3180,.T.);
#3200=ADVANCED_FACE('',(#3190),#2930,.T.);
#3210=CARTESIAN_POINT('',(-14.28,-15.,-0.03));
#3220=DIRECTION('',(-0.,1.,0.));
#3230=DIRECTION('',(1.,0.,0.));
#3240=AXIS2_PLACEMENT_3D('',#3210,#3220,#3230);
#3250=PLANE('',#3240);
#3260=ORIENTED_EDGE('',*,*,#1540,.T.);
#3270=ORIENTED_EDGE('',*,*,#2090,.F.);
#3280=CARTESIAN_POINT('',(-3.,-15.,-1.0000054));
#3290=DIRECTION('',(0.,0.,1.));
#3300=VECTOR('',#3290,1.);
#3310=LINE('',#3280,#3300);
#3320=CARTESIAN_POINT('',(-3.,-15.,3.));
#3330=VERTEX_POINT('',#3320);
#3340=EDGE_CURVE('',#2020,#3330,#3310,.T.);
#3350=ORIENTED_EDGE('',*,*,#3340,.F.);
#3360=CARTESIAN_POINT('',(0.,-15.,3.));
#3370=DIRECTION('',(1.,0.,0.));
#3380=VECTOR('',#3370,1.);
#3390=LINE('',#3360,#3380);
#3400=EDGE_CURVE('',#3330,#1530,#3390,.T.);
#3410=ORIENTED_EDGE('',*,*,#3400,.F.);
#3420=EDGE_LOOP('',(#3410,#3350,#3270,#3260));
#3430=FACE_OUTER_BOUND('',#3420,.T.);
#3440=ADVANCED_FACE('',(#3430),#3250,.F.);
#3450=CARTESIAN_POINT('',(-14.28,15.,3.03));
#3460=DIRECTION('',(-0.,-1.,-0.));
#3470=DIRECTION('',(-1.,0.,0.));
#3480=AXIS2_PLACEMENT_3D('',#3450,#3460,#3470);
#3490=PLANE('',#3480);
#3500=ORIENTED_EDGE('',*,*,#1200,.T.);
#3510=ORIENTED_EDGE('',*,*,#2160,.F.);
#3520=ORIENTED_EDGE('',*,*,#1380,.F.);
#3530=CARTESIAN_POINT('',(0.,15.,3.));
#3540=DIRECTION('',(-1.,0.,0.));
#3550=VECTOR('',#3540,1.);
#3560=LINE('',#3530,#3550);
#3570=EDGE_CURVE('',#1370,#950,#3560,.T.);
#3580=ORIENTED_EDGE('',*,*,#3570,.F.);
#3590=EDGE_LOOP('',(#3580,#3520,#3510,#3500));
#3600=FACE_OUTER_BOUND('',#3590,.T.);
#3610=ADVANCED_FACE('',(#3600),#3490,.F.);
#3620=CARTESIAN_POINT('',(-15.3,-15.3,3.));
#3630=DIRECTION('',(0.,0.,1.));
#3640=DIRECTION('',(1.,0.,0.));
#3650=AXIS2_PLACEMENT_3D('',#3620,#3630,#3640);
#3660=PLANE('',#3650);
#3670=ORIENTED_EDGE('',*,*,#230,.T.);
#3680=EDGE_CURVE('',#220,#130,#200,.T.);
#3690=ORIENTED_EDGE('',*,*,#3680,.T.);
#3700=EDGE_LOOP('',(#3690,#3670));
#3710=FACE_BOUND('',#3700,.T.);
#3720=ORIENTED_EDGE('',*,*,#650,.T.);
#3730=EDGE_CURVE('',#640,#550,#620,.T.);
#3740=ORIENTED_EDGE('',*,*,#3730,.T.);
#3750=EDGE_LOOP('',(#3740,#3720));
#3760=FACE_BOUND('',#3750,.T.);
#3770=EDGE_CURVE('',#2990,#3080,#3150,.T.);
#3780=ORIENTED_EDGE('',*,*,#3770,.T.);
#3790=ORIENTED_EDGE('',*,*,#3160,.T.);
#3800=EDGE_LOOP('',(#3790,#3780));
#3810=FACE_BOUND('',#3800,.T.);
#3820=ORIENTED_EDGE('',*,*,#3570,.T.);
#3830=ORIENTED_EDGE('',*,*,#1600,.T.);
#3840=ORIENTED_EDGE('',*,*,#3400,.T.);
#3850=CARTESIAN_POINT('',(-3.,-3.,3.));
#3860=DIRECTION('',(0.,0.,1.));
#3870=DIRECTION('',(0.,-1.,0.));
#3880=AXIS2_PLACEMENT_3D('',#3850,#3860,#3870);
#3890=CIRCLE('',#3880,12.);
#3900=EDGE_CURVE('',#970,#3330,#3890,.T.);
#3910=ORIENTED_EDGE('',*,*,#3900,.T.);
#3920=ORIENTED_EDGE('',*,*,#980,.T.);
#3930=EDGE_LOOP('',(#3920,#3910,#3840,#3830,#3820));
#3940=FACE_OUTER_BOUND('',#3930,.T.);
#3950=ADVANCED_FACE('',(#3710,#3760,#3810,#3940),#3660,.T.);
#3960=CARTESIAN_POINT('',(-3.,-3.,11.0000024));
#3970=DIRECTION('',(0.,0.,1.));
#3980=DIRECTION('',(0.,-1.,0.));
#3990=AXIS2_PLACEMENT_3D('',#3960,#3970,#3980);
#4000=CYLINDRICAL_SURFACE('',#3990,12.);
#4010=ORIENTED_EDGE('',*,*,#3340,.T.);
#4020=ORIENTED_EDGE('',*,*,#2030,.T.);
#4030=ORIENTED_EDGE('',*,*,#1060,.F.);
#4040=ORIENTED_EDGE('',*,*,#3900,.F.);
#4050=EDGE_LOOP('',(#4040,#4030,#4020,#4010));
#4060=FACE_OUTER_BOUND('',#4050,.T.);
#4070=ADVANCED_FACE('',(#4060),#4000,.T.);
#4080=CARTESIAN_POINT('',(0.,-1.77635683940025E-15,10.));
#4090=DIRECTION('',(0.,0.,1.));
#4100=DIRECTION('',(1.,0.,0.));
#4110=AXIS2_PLACEMENT_3D('',#4080,#4090,#4100);
#4120=CYLINDRICAL_SURFACE('',#4110,4.25);
#4130=CARTESIAN_POINT('',(-4.25,-1.25588194976263E-15,10.));
#4140=DIRECTION('',(0.,0.,1.));
#4150=VECTOR('',#4140,1.);
#4160=LINE('',#4130,#4150);
#4170=CARTESIAN_POINT('',(-4.25,-1.25588194976263E-15,0.433013000000001)
);
#4180=VERTEX_POINT('',#4170);
#4190=CARTESIAN_POINT('',(-4.25,-1.25588194976263E-15,9.56698729810778))
;
#4200=VERTEX_POINT('',#4190);
#4210=EDGE_CURVE('',#4180,#4200,#4160,.T.);
#4220=ORIENTED_EDGE('',*,*,#4210,.T.);
#4230=CARTESIAN_POINT('',(0.,-1.77635683940025E-15,0.433013000000001));
#4240=DIRECTION('',(0.,0.,1.));
#4250=DIRECTION('',(1.,0.,0.));
#4260=AXIS2_PLACEMENT_3D('',#4230,#4240,#4250);
#4270=CIRCLE('',#4260,4.25);
#4280=CARTESIAN_POINT('',(4.25,-1.77635683940025E-15,0.433013000000001))
;
#4290=VERTEX_POINT('',#4280);
#4300=EDGE_CURVE('',#4180,#4290,#4270,.T.);
#4310=ORIENTED_EDGE('',*,*,#4300,.F.);
#4320=CARTESIAN_POINT('',(4.25,-1.77635683940025E-15,10.));
#4330=DIRECTION('',(0.,0.,1.));
#4340=VECTOR('',#4330,1.);
#4350=LINE('',#4320,#4340);
#4360=CARTESIAN_POINT('',(4.25,-1.77635683940025E-15,9.56698729810778));
#4370=VERTEX_POINT('',#4360);
#4380=EDGE_CURVE('',#4290,#4370,#4350,.T.);
#4390=ORIENTED_EDGE('',*,*,#4380,.F.);
#4400=CARTESIAN_POINT('',(0.,-1.77635683940025E-15,9.56698729810778));
#4410=DIRECTION('',(0.,0.,1.));
#4420=DIRECTION('',(1.,0.,0.));
#4430=AXIS2_PLACEMENT_3D('',#4400,#4410,#4420);
#4440=CIRCLE('',#4430,4.25);
#4450=EDGE_CURVE('',#4200,#4370,#4440,.T.);
#4460=ORIENTED_EDGE('',*,*,#4450,.T.);
#4470=EDGE_LOOP('',(#4460,#4390,#4310,#4220));
#4480=FACE_OUTER_BOUND('',#4470,.T.);
#4490=ADVANCED_FACE('M10x1.5_4642896',(#4480),#4120,.F.);
#4500=COLOUR_RGB('',1.,0.,0.);
#4510=FILL_AREA_STYLE_COLOUR('',#4500);
#4520=FILL_AREA_STYLE('',(#4510));
#4530=SURFACE_STYLE_FILL_AREA(#4520);
#4540=SURFACE_SIDE_STYLE('',(#4530));
#4550=SURFACE_STYLE_USAGE(.BOTH.,#4540);
#4560=PRESENTATION_STYLE_ASSIGNMENT((#4550));
#4570=CARTESIAN_POINT('',(0.,-1.77635683940025E-15,9.56698729810778));
#4580=DIRECTION('',(0.,0.,1.));
#4590=DIRECTION('',(1.,0.,0.));
#4600=AXIS2_PLACEMENT_3D('',#4570,#4580,#4590);
#4610=CONICAL_SURFACE('',#4600,4.25,1.0471975511966);
#4620=CARTESIAN_POINT('',(4.25,-1.77635683940025E-15,9.56698729810778));
#4630=DIRECTION('',(0.866025403784439,0.,0.5));
#4640=VECTOR('',#4630,4.90747728811182);
#4650=LINE('',#4620,#4640);
#4660=EDGE_CURVE('',#4370,#2320,#4650,.T.);
#4670=ORIENTED_EDGE('',*,*,#4660,.F.);
#4680=ORIENTED_EDGE('',*,*,#2370,.T.);
#4690=CARTESIAN_POINT('',(-4.25,-1.25588194976263E-15,9.56698729810778))
;
#4700=DIRECTION('',(-0.866025403784439,1.06057523872491E-16,0.5));
#4710=VECTOR('',#4700,4.90747728811182);
#4720=LINE('',#4690,#4710);
#4730=EDGE_CURVE('',#4200,#2340,#4720,.T.);
#4740=ORIENTED_EDGE('',*,*,#4730,.T.);
#4750=ORIENTED_EDGE('',*,*,#4450,.F.);
#4760=EDGE_LOOP('',(#4750,#4740,#4680,#4670));
#4770=FACE_OUTER_BOUND('',#4760,.T.);
#4780=ADVANCED_FACE('',(#4770),#4610,.F.);
#4790=CARTESIAN_POINT('',(0.,-1.77635683940025E-15,0.433013000000001));
#4800=DIRECTION('',(0.,0.,-1.));
#4810=DIRECTION('',(-1.,0.,0.));
#4820=AXIS2_PLACEMENT_3D('',#4790,#4800,#4810);
#4830=CONICAL_SURFACE('',#4820,4.25,1.0471975511966);
#4840=CARTESIAN_POINT('',(-4.25,-1.77635683940025E-15,0.433013000000001)
);
#4850=DIRECTION('',(-0.866025403784439,0.,-0.5));
#4860=VECTOR('',#4850,4.90747728811182);
#4870=LINE('',#4840,#4860);
#4880=EDGE_CURVE('',#4180,#1830,#4870,.T.);
#4890=ORIENTED_EDGE('',*,*,#4880,.F.);
#4900=ORIENTED_EDGE('',*,*,#1860,.F.);
#4910=CARTESIAN_POINT('',(4.25,-1.25588194976263E-15,0.433013000000001))
;
#4920=DIRECTION('',(0.866025403784439,1.06057523872491E-16,-0.5));
#4930=VECTOR('',#4920,4.90747728811182);
#4940=LINE('',#4910,#4930);
#4950=EDGE_CURVE('',#4290,#1810,#4940,.T.);
#4960=ORIENTED_EDGE('',*,*,#4950,.T.);
#4970=ORIENTED_EDGE('',*,*,#4300,.T.);
#4980=EDGE_LOOP('',(#4970,#4960,#4900,#4890));
#4990=FACE_OUTER_BOUND('',#4980,.T.);
#5000=ADVANCED_FACE('',(#4990),#4830,.F.);
#5010=CARTESIAN_POINT('',(0.,-1.77635683940025E-15,10.));
#5020=DIRECTION('',(0.,0.,1.));
#5030=DIRECTION('',(1.,0.,0.));
#5040=AXIS2_PLACEMENT_3D('',#5010,#5020,#5030);
#5050=CYLINDRICAL_SURFACE('',#5040,4.25);
#5060=EDGE_CURVE('',#4290,#4180,#4270,.T.);
#5070=ORIENTED_EDGE('',*,*,#5060,.F.);
#5080=ORIENTED_EDGE('',*,*,#4210,.F.);
#5090=EDGE_CURVE('',#4370,#4200,#4440,.T.);
#5100=ORIENTED_EDGE('',*,*,#5090,.T.);
#5110=ORIENTED_EDGE('',*,*,#4380,.T.);
#5120=EDGE_LOOP('',(#5110,#5100,#5080,#5070));
#5130=FACE_OUTER_BOUND('',#5120,.T.);
#5140=ADVANCED_FACE('',(#5130),#5050,.F.);
#5150=COLOUR_RGB('',1.,0.,0.);
#5160=FILL_AREA_STYLE_COLOUR('',#5150);
#5170=FILL_AREA_STYLE('',(#5160));
#5180=SURFACE_STYLE_FILL_AREA(#5170);
#5190=SURFACE_SIDE_STYLE('',(#5180));
#5200=SURFACE_STYLE_USAGE(.BOTH.,#5190);
#5210=PRESENTATION_STYLE_ASSIGNMENT((#5200));
#5220=CARTESIAN_POINT('',(0.,-1.77635683940025E-15,0.433013000000001));
#5230=DIRECTION('',(0.,0.,-1.));
#5240=DIRECTION('',(-1.,0.,0.));
#5250=AXIS2_PLACEMENT_3D('',#5220,#5230,#5240);
#5260=CONICAL_SURFACE('',#5250,4.25,1.0471975511966);
#5270=ORIENTED_EDGE('',*,*,#5060,.T.);
#5280=ORIENTED_EDGE('',*,*,#4950,.F.);
#5290=ORIENTED_EDGE('',*,*,#1840,.F.);
#5300=ORIENTED_EDGE('',*,*,#4880,.T.);
#5310=EDGE_LOOP('',(#5300,#5290,#5280,#5270));
#5320=FACE_OUTER_BOUND('',#5310,.T.);
#5330=ADVANCED_FACE('',(#5320),#5260,.F.);
#5340=CARTESIAN_POINT('',(0.,1.55250882127837E-15,9.565));
#5350=DIRECTION('',(0.,0.,-1.));
#5360=DIRECTION('',(-1.,0.,0.));
#5370=AXIS2_PLACEMENT_3D('',#5340,#5350,#5360);
#5380=CYLINDRICAL_SURFACE('',#5370,6.00000000000003);
#5390=EDGE_CURVE('',#2670,#2760,#2830,.T.);
#5400=ORIENTED_EDGE('',*,*,#5390,.T.);
#5410=ORIENTED_EDGE('',*,*,#3000,.F.);
#5420=ORIENTED_EDGE('',*,*,#3770,.F.);
#5430=ORIENTED_EDGE('',*,*,#3090,.T.);
#5440=EDGE_LOOP('',(#5430,#5420,#5410,#5400));
#5450=FACE_OUTER_BOUND('',#5440,.T.);
#5460=ADVANCED_FACE('',(#5450),#5380,.T.);
#5470=CARTESIAN_POINT('',(2.0306834363428E-31,-1.47667450287796E-15,
9.495));
#5480=DIRECTION('',(0.,0.,-1.));
#5490=DIRECTION('',(-1.,0.,0.));
#5500=AXIS2_PLACEMENT_3D('',#5470,#5480,#5490);
#5510=CONICAL_SURFACE('',#5500,6.00500000000003,0.785398163397451);
#5520=ORIENTED_EDGE('',*,*,#2500,.T.);
#5530=ORIENTED_EDGE('',*,*,#2680,.F.);
#5540=ORIENTED_EDGE('',*,*,#5390,.F.);
#5550=ORIENTED_EDGE('',*,*,#2770,.T.);
#5560=EDGE_LOOP('',(#5550,#5540,#5530,#5520));
#5570=FACE_OUTER_BOUND('',#5560,.T.);
#5580=ADVANCED_FACE('',(#5570),#5510,.T.);
#5590=CARTESIAN_POINT('',(0.,-1.77635683940025E-15,9.56698729810778));
#5600=DIRECTION('',(0.,0.,1.));
#5610=DIRECTION('',(1.,0.,0.));
#5620=AXIS2_PLACEMENT_3D('',#5590,#5600,#5610);
#5630=CONICAL_SURFACE('',#5620,4.25,1.0471975511966);
#5640=ORIENTED_EDGE('',*,*,#5090,.F.);
#5650=ORIENTED_EDGE('',*,*,#4730,.F.);
#5660=ORIENTED_EDGE('',*,*,#2350,.T.);
#5670=ORIENTED_EDGE('',*,*,#4660,.T.);
#5680=EDGE_LOOP('',(#5670,#5660,#5650,#5640));
#5690=FACE_OUTER_BOUND('',#5680,.T.);
#5700=ADVANCED_FACE('',(#5690),#5630,.F.);
#5710=CARTESIAN_POINT('',(11.5,-11.5,-0.0300000000000002));
#5720=DIRECTION('',(0.,0.,1.));
#5730=DIRECTION('',(1.,0.,0.));
#5740=AXIS2_PLACEMENT_3D('',#5710,#5720,#5730);
#5750=CYLINDRICAL_SURFACE('',#5740,2.75);
#5760=ORIENTED_EDGE('',*,*,#560,.T.);
#5770=ORIENTED_EDGE('',*,*,#1700,.F.);
#5780=ORIENTED_EDGE('',*,*,#730,.F.);
#5790=ORIENTED_EDGE('',*,*,#3730,.F.);
#5800=EDGE_LOOP('',(#5790,#5780,#5770,#5760));
#5810=FACE_OUTER_BOUND('',#5800,.T.);
#5820=ADVANCED_FACE('',(#5810),#5750,.F.);
#5830=CARTESIAN_POINT('',(-11.5,11.5,-0.0300000000000002));
#5840=DIRECTION('',(0.,0.,1.));
#5850=DIRECTION('',(1.,0.,0.));
#5860=AXIS2_PLACEMENT_3D('',#5830,#5840,#5850);
#5870=CYLINDRICAL_SURFACE('',#5860,2.75);
#5880=ORIENTED_EDGE('',*,*,#140,.T.);
#5890=ORIENTED_EDGE('',*,*,#1900,.F.);
#5900=ORIENTED_EDGE('',*,*,#310,.F.);
#5910=ORIENTED_EDGE('',*,*,#3680,.F.);
#5920=EDGE_LOOP('',(#5910,#5900,#5890,#5880));
#5930=FACE_OUTER_BOUND('',#5920,.T.);
#5940=ADVANCED_FACE('',(#5930),#5870,.F.);
#5950=CLOSED_SHELL('',(#420,#840,#1240,#1640,#2200,#2560,#2880,#3200,
#3440,#3610,#3950,#4070,#4490,#4780,#5000,#5140,#5330,#5460,#5580,#5700,
#5820,#5940));
#5960=MANIFOLD_SOLID_BREP('',#5950);
#5970=CARTESIAN_POINT('',(0.,0.,0.));
#5980=DIRECTION('',(0.,0.,1.));
#5990=DIRECTION('',(1.,0.,0.));
#6000=AXIS2_PLACEMENT_3D('',#5970,#5980,#5990);
#6010=APPLICATION_CONTEXT(' ');
#6020=APPLICATION_PROTOCOL_DEFINITION(' ','automotive_design',1998,#6010
);
#6030=PRODUCT_CONTEXT('',#6010,'mechanical');
#6040=PRODUCT_DEFINITION_CONTEXT('part definition',#6010,'design');
#6050=PRODUCT('Flansch-MMS-33_30x30-M10_33.0246.7_PX176134',
'Flansch-MMS-33_30x30-M10_33.0246.7_PX176134','',(#6030));
#6060=PRODUCT_RELATED_PRODUCT_CATEGORY('part',' ',(#6050));
#6070=PRODUCT_DEFINITION_FORMATION_WITH_SPECIFIED_SOURCE('','',#6050,
.BOUGHT.);
#6080=PRODUCT_DEFINITION('',' ',#6070,#6040);
#6090=PRODUCT_DEFINITION_SHAPE('','',#6080);
#6100=DIMENSIONAL_EXPONENTS(1.,0.,0.,0.,0.,0.,0.);
#6110=DIMENSIONAL_EXPONENTS(0.,0.,0.,0.,0.,0.,0.);
#6120=DIMENSIONAL_EXPONENTS(0.,0.,0.,0.,0.,0.,0.);
#6130=(LENGTH_UNIT() NAMED_UNIT(*) SI_UNIT(.MILLI.,.METRE.));
#6140=(NAMED_UNIT(*) PLANE_ANGLE_UNIT() SI_UNIT($,.RADIAN.));
#6150=(NAMED_UNIT(*) SI_UNIT($,.STERADIAN.) SOLID_ANGLE_UNIT());
#6160=(GEOMETRIC_REPRESENTATION_CONTEXT(3) 
GLOBAL_UNCERTAINTY_ASSIGNED_CONTEXT((#6170)) 
GLOBAL_UNIT_ASSIGNED_CONTEXT((#6130,#6140,#6150)) REPRESENTATION_CONTEXT
('',''));
#6170=UNCERTAINTY_MEASURE_WITH_UNIT(LENGTH_MEASURE(1.E-6),#6130,
'distance_accuracy_value','maximum gap value');
#6180=ADVANCED_BREP_SHAPE_REPRESENTATION('',(#6000,#5960),#6160);
#6190=SHAPE_DEFINITION_REPRESENTATION(#6090,#6180);
#6200=COLOUR_RGB('',0.690196096897125,0.886274576187134,1.);
#6210=FILL_AREA_STYLE_COLOUR('',#6200);
#6220=FILL_AREA_STYLE('',(#6210));
#6230=SURFACE_STYLE_FILL_AREA(#6220);
#6240=SURFACE_SIDE_STYLE('',(#6230));
#6250=SURFACE_STYLE_USAGE(.BOTH.,#6240);
#6260=PRESENTATION_STYLE_ASSIGNMENT((#6250));
#6270=STYLED_ITEM('',(#6260),#5960);
#6280=OVER_RIDING_STYLED_ITEM('',(#4560),#4490,#6270);
#6290=OVER_RIDING_STYLED_ITEM('',(#5210),#5140,#6270);
#6300=DRAUGHTING_MODEL('',(#6270,#6280,#6290),#6160);
ENDSEC;
END-ISO-10303-21;
