ISO-10303-21;
HEADER;
FILE_DESCRIPTION(('Creo Elements/Direct Modeling STEP Export'),'2;1');
FILE_NAME(
'//KR-CAD2/PhoenixTemp/karl.letzgus/Konvertierung/33.0306_Abdeckkappe-MM
S-33_30x15.stp','2022-03-18T13:58:22',(''),(''),
'PTC Creo Elements/Direct Modeling STEP processor for AP214 (Solid Model
)',
'PTC Creo Elements/Direct Modeling 19.0C  15-Aug-2015 (C) Parametric Tec
hnology GmbH','');
FILE_SCHEMA(('AUTOMOTIVE_DESIGN { 1 0 10303 214 1 1 1 1 }'));
ENDSEC;
DATA;
#10=CARTESIAN_POINT('',(-0.300000000000001,-0.150000000000001,0.));
#20=DIRECTION('',(0.,0.,1.));
#30=DIRECTION('',(1.,0.,0.));
#40=AXIS2_PLACEMENT_3D('',#10,#20,#30);
#50=PLANE('',#40);
#60=CARTESIAN_POINT('',(29.,0.999999999999996,0.));
#70=DIRECTION('',(0.,0.,-1.));
#80=DIRECTION('',(1.,0.,0.));
#90=AXIS2_PLACEMENT_3D('',#60,#70,#80);
#100=CIRCLE('',#90,0.999999999999999);
#110=CARTESIAN_POINT('',(30.,0.999999999999998,0.));
#120=VERTEX_POINT('',#110);
#130=CARTESIAN_POINT('',(29.,-8.76740086780403E-16,0.));
#140=VERTEX_POINT('',#130);
#150=EDGE_CURVE('',#120,#140,#100,.T.);
#160=ORIENTED_EDGE('',*,*,#150,.T.);
#170=CARTESIAN_POINT('',(30.,0.,0.));
#180=DIRECTION('',(0.,-1.,0.));
#190=VECTOR('',#180,1.);
#200=LINE('',#170,#190);
#210=CARTESIAN_POINT('',(30.,14.,0.));
#220=VERTEX_POINT('',#210);
#230=EDGE_CURVE('',#220,#120,#200,.T.);
#240=ORIENTED_EDGE('',*,*,#230,.T.);
#250=CARTESIAN_POINT('',(29.,14.,0.));
#260=DIRECTION('',(0.,0.,-1.));
#270=DIRECTION('',(1.,0.,0.));
#280=AXIS2_PLACEMENT_3D('',#250,#260,#270);
#290=CIRCLE('',#280,1.);
#300=CARTESIAN_POINT('',(29.,15.,0.));
#310=VERTEX_POINT('',#300);
#320=EDGE_CURVE('',#310,#220,#290,.T.);
#330=ORIENTED_EDGE('',*,*,#320,.T.);
#340=CARTESIAN_POINT('',(0.,15.,0.));
#350=DIRECTION('',(1.,0.,0.));
#360=VECTOR('',#350,1.);
#370=LINE('',#340,#360);
#380=CARTESIAN_POINT('',(1.,15.,0.));
#390=VERTEX_POINT('',#380);
#400=EDGE_CURVE('',#390,#310,#370,.T.);
#410=ORIENTED_EDGE('',*,*,#400,.T.);
#420=CARTESIAN_POINT('',(1.,14.,0.));
#430=DIRECTION('',(0.,0.,-1.));
#440=DIRECTION('',(1.,0.,0.));
#450=AXIS2_PLACEMENT_3D('',#420,#430,#440);
#460=CIRCLE('',#450,1.);
#470=CARTESIAN_POINT('',(0.,14.,0.));
#480=VERTEX_POINT('',#470);
#490=EDGE_CURVE('',#480,#390,#460,.T.);
#500=ORIENTED_EDGE('',*,*,#490,.T.);
#510=CARTESIAN_POINT('',(0.,0.,0.));
#520=DIRECTION('',(0.,1.,0.));
#530=VECTOR('',#520,1.);
#540=LINE('',#510,#530);
#550=CARTESIAN_POINT('',(8.38386434928728E-16,1.,0.));
#560=VERTEX_POINT('',#550);
#570=EDGE_CURVE('',#560,#480,#540,.T.);
#580=ORIENTED_EDGE('',*,*,#570,.T.);
#590=CARTESIAN_POINT('',(1.,1.,0.));
#600=DIRECTION('',(0.,0.,-1.));
#610=DIRECTION('',(1.,0.,0.));
#620=AXIS2_PLACEMENT_3D('',#590,#600,#610);
#630=CIRCLE('',#620,1.);
#640=CARTESIAN_POINT('',(1.,-6.12303176911189E-17,0.));
#650=VERTEX_POINT('',#640);
#660=EDGE_CURVE('',#650,#560,#630,.T.);
#670=ORIENTED_EDGE('',*,*,#660,.T.);
#680=CARTESIAN_POINT('',(0.,0.,0.));
#690=DIRECTION('',(-1.,0.,0.));
#700=VECTOR('',#690,1.);
#710=LINE('',#680,#700);
#720=EDGE_CURVE('',#140,#650,#710,.T.);
#730=ORIENTED_EDGE('',*,*,#720,.T.);
#740=EDGE_LOOP('',(#730,#670,#580,#500,#410,#330,#240,#160));
#750=FACE_OUTER_BOUND('',#740,.T.);
#760=CARTESIAN_POINT('',(26.5,7.49999999999999,0.));
#770=DIRECTION('',(0.,0.,-1.));
#780=DIRECTION('',(0.,1.,0.));
#790=AXIS2_PLACEMENT_3D('',#760,#770,#780);
#800=CIRCLE('',#790,2.2);
#810=CARTESIAN_POINT('',(26.5,9.69999999999999,0.));
#820=VERTEX_POINT('',#810);
#830=CARTESIAN_POINT('',(26.5,5.29999999999999,0.));
#840=VERTEX_POINT('',#830);
#850=EDGE_CURVE('',#820,#840,#800,.T.);
#860=ORIENTED_EDGE('',*,*,#850,.F.);
#870=EDGE_CURVE('',#840,#820,#800,.T.);
#880=ORIENTED_EDGE('',*,*,#870,.F.);
#890=EDGE_LOOP('',(#880,#860));
#900=FACE_BOUND('',#890,.T.);
#910=CARTESIAN_POINT('',(3.5,7.49999999999999,0.));
#920=DIRECTION('',(0.,0.,-1.));
#930=DIRECTION('',(0.,1.,0.));
#940=AXIS2_PLACEMENT_3D('',#910,#920,#930);
#950=CIRCLE('',#940,2.2);
#960=CARTESIAN_POINT('',(3.5,9.69999999999999,0.));
#970=VERTEX_POINT('',#960);
#980=CARTESIAN_POINT('',(3.5,5.29999999999999,0.));
#990=VERTEX_POINT('',#980);
#1000=EDGE_CURVE('',#970,#990,#950,.T.);
#1010=ORIENTED_EDGE('',*,*,#1000,.F.);
#1020=EDGE_CURVE('',#990,#970,#950,.T.);
#1030=ORIENTED_EDGE('',*,*,#1020,.F.);
#1040=EDGE_LOOP('',(#1030,#1010));
#1050=FACE_BOUND('',#1040,.T.);
#1060=ADVANCED_FACE('',(#750,#900,#1050),#50,.F.);
#1070=CARTESIAN_POINT('',(1.,14.,-0.0470710678118655));
#1080=DIRECTION('',(0.,0.,1.));
#1090=DIRECTION('',(1.,0.,0.));
#1100=AXIS2_PLACEMENT_3D('',#1070,#1080,#1090);
#1110=CYLINDRICAL_SURFACE('',#1100,1.);
#1120=CARTESIAN_POINT('',(0.,14.,4.));
#1130=DIRECTION('',(0.,0.,-1.));
#1140=VECTOR('',#1130,1.);
#1150=LINE('',#1120,#1140);
#1160=CARTESIAN_POINT('',(0.,14.,4.));
#1170=VERTEX_POINT('',#1160);
#1180=EDGE_CURVE('',#1170,#480,#1150,.T.);
#1190=ORIENTED_EDGE('',*,*,#1180,.F.);
#1200=ORIENTED_EDGE('',*,*,#490,.F.);
#1210=CARTESIAN_POINT('',(1.,15.,4.));
#1220=DIRECTION('',(0.,0.,-1.));
#1230=VECTOR('',#1220,1.);
#1240=LINE('',#1210,#1230);
#1250=CARTESIAN_POINT('',(1.,15.,4.));
#1260=VERTEX_POINT('',#1250);
#1270=EDGE_CURVE('',#1260,#390,#1240,.T.);
#1280=ORIENTED_EDGE('',*,*,#1270,.T.);
#1290=CARTESIAN_POINT('',(1.,15.,4.));
#1300=CARTESIAN_POINT('',(0.585786437626905,15.,4.41421356237309));
#1310=CARTESIAN_POINT('',(0.292893218813452,14.7071067811865,
4.70710678118655));
#1320=(BOUNDED_CURVE() B_SPLINE_CURVE(2,(#1290,#1300,#1310),
.UNSPECIFIED.,.F.,.F.) B_SPLINE_CURVE_WITH_KNOTS((3,3),(0.,1.),
.UNSPECIFIED.) CURVE() GEOMETRIC_REPRESENTATION_ITEM() 
RATIONAL_B_SPLINE_CURVE((1.,0.923879532511287,1.)) REPRESENTATION_ITEM(
''));
#1330=CARTESIAN_POINT('',(0.292893218813452,14.7071067811865,
4.70710678118655));
#1340=VERTEX_POINT('',#1330);
#1350=EDGE_CURVE('',#1260,#1340,#1320,.T.);
#1360=ORIENTED_EDGE('',*,*,#1350,.F.);
#1370=CARTESIAN_POINT('',(0.292893218813452,14.7071067811865,
4.70710678118655));
#1380=CARTESIAN_POINT('',(1.2016967424393E-16,14.4142135623731,
4.41421356237309));
#1390=CARTESIAN_POINT('',(0.,14.,4.));
#1400=(BOUNDED_CURVE() B_SPLINE_CURVE(2,(#1370,#1380,#1390),
.UNSPECIFIED.,.F.,.F.) B_SPLINE_CURVE_WITH_KNOTS((3,3),(0.,1.),
.UNSPECIFIED.) CURVE() GEOMETRIC_REPRESENTATION_ITEM() 
RATIONAL_B_SPLINE_CURVE((1.,0.923879532511287,1.)) REPRESENTATION_ITEM(
''));
#1410=EDGE_CURVE('',#1340,#1170,#1400,.T.);
#1420=ORIENTED_EDGE('',*,*,#1410,.F.);
#1430=EDGE_LOOP('',(#1420,#1360,#1280,#1200,#1190));
#1440=FACE_OUTER_BOUND('',#1430,.T.);
#1450=ADVANCED_FACE('',(#1440),#1110,.T.);
#1460=CARTESIAN_POINT('',(0.,0.87,4.04));
#1470=DIRECTION('',(1.,0.,0.));
#1480=DIRECTION('',(0.,-1.,0.));
#1490=AXIS2_PLACEMENT_3D('',#1460,#1470,#1480);
#1500=PLANE('',#1490);
#1510=ORIENTED_EDGE('',*,*,#1180,.T.);
#1520=CARTESIAN_POINT('',(0.,14.,4.));
#1530=DIRECTION('',(0.,-1.,0.));
#1540=VECTOR('',#1530,1.);
#1550=LINE('',#1520,#1540);
#1560=CARTESIAN_POINT('',(7.7715611723761E-16,1.,4.));
#1570=VERTEX_POINT('',#1560);
#1580=EDGE_CURVE('',#1170,#1570,#1550,.T.);
#1590=ORIENTED_EDGE('',*,*,#1580,.F.);
#1600=CARTESIAN_POINT('',(0.,1.,4.));
#1610=DIRECTION('',(0.,0.,-1.));
#1620=VECTOR('',#1610,1.);
#1630=LINE('',#1600,#1620);
#1640=EDGE_CURVE('',#1570,#560,#1630,.T.);
#1650=ORIENTED_EDGE('',*,*,#1640,.F.);
#1660=ORIENTED_EDGE('',*,*,#570,.F.);
#1670=EDGE_LOOP('',(#1660,#1650,#1590,#1510));
#1680=FACE_OUTER_BOUND('',#1670,.T.);
#1690=ADVANCED_FACE('',(#1680),#1500,.F.);
#1700=CARTESIAN_POINT('',(0.720000000000001,15.,4.04));
#1710=DIRECTION('',(-0.,-1.,-0.));
#1720=DIRECTION('',(-1.,0.,0.));
#1730=AXIS2_PLACEMENT_3D('',#1700,#1710,#1720);
#1740=PLANE('',#1730);
#1750=ORIENTED_EDGE('',*,*,#1270,.F.);
#1760=ORIENTED_EDGE('',*,*,#400,.F.);
#1770=CARTESIAN_POINT('',(29.,15.,4.));
#1780=DIRECTION('',(0.,0.,-1.));
#1790=VECTOR('',#1780,1.);
#1800=LINE('',#1770,#1790);
#1810=CARTESIAN_POINT('',(29.,15.,4.));
#1820=VERTEX_POINT('',#1810);
#1830=EDGE_CURVE('',#1820,#310,#1800,.T.);
#1840=ORIENTED_EDGE('',*,*,#1830,.T.);
#1850=CARTESIAN_POINT('',(1.,15.,4.));
#1860=DIRECTION('',(1.,0.,0.));
#1870=VECTOR('',#1860,1.);
#1880=LINE('',#1850,#1870);
#1890=EDGE_CURVE('',#1260,#1820,#1880,.T.);
#1900=ORIENTED_EDGE('',*,*,#1890,.T.);
#1910=EDGE_LOOP('',(#1900,#1840,#1760,#1750));
#1920=FACE_OUTER_BOUND('',#1910,.T.);
#1930=ADVANCED_FACE('',(#1920),#1740,.F.);
#1940=CARTESIAN_POINT('',(0.720000000000001,0.,-0.04));
#1950=DIRECTION('',(-0.,1.,0.));
#1960=DIRECTION('',(1.,0.,0.));
#1970=AXIS2_PLACEMENT_3D('',#1940,#1950,#1960);
#1980=PLANE('',#1970);
#1990=CARTESIAN_POINT('',(29.,0.,4.));
#2000=DIRECTION('',(0.,0.,-1.));
#2010=VECTOR('',#2000,1.);
#2020=LINE('',#1990,#2010);
#2030=CARTESIAN_POINT('',(29.,-7.7715611723761E-16,4.));
#2040=VERTEX_POINT('',#2030);
#2050=EDGE_CURVE('',#2040,#140,#2020,.T.);
#2060=ORIENTED_EDGE('',*,*,#2050,.F.);
#2070=ORIENTED_EDGE('',*,*,#720,.F.);
#2080=CARTESIAN_POINT('',(1.,0.,4.));
#2090=DIRECTION('',(0.,0.,-1.));
#2100=VECTOR('',#2090,1.);
#2110=LINE('',#2080,#2100);
#2120=CARTESIAN_POINT('',(1.,-1.11022302462516E-16,4.));
#2130=VERTEX_POINT('',#2120);
#2140=EDGE_CURVE('',#2130,#650,#2110,.T.);
#2150=ORIENTED_EDGE('',*,*,#2140,.T.);
#2160=CARTESIAN_POINT('',(29.,-1.08725402332105E-31,4.));
#2170=DIRECTION('',(-1.,0.,0.));
#2180=VECTOR('',#2170,1.);
#2190=LINE('',#2160,#2180);
#2200=EDGE_CURVE('',#2040,#2130,#2190,.T.);
#2210=ORIENTED_EDGE('',*,*,#2200,.T.);
#2220=EDGE_LOOP('',(#2210,#2150,#2070,#2060));
#2230=FACE_OUTER_BOUND('',#2220,.T.);
#2240=ADVANCED_FACE('',(#2230),#1980,.F.);
#2250=CARTESIAN_POINT('',(30.0012489168103,14.,4.));
#2260=DIRECTION('',(-1.,0.,0.));
#2270=DIRECTION('',(0.,1.,0.));
#2280=AXIS2_PLACEMENT_3D('',#2250,#2260,#2270);
#2290=CYLINDRICAL_SURFACE('',#2280,0.999999999999999);
#2300=ORIENTED_EDGE('',*,*,#1890,.F.);
#2310=CARTESIAN_POINT('',(29.7071067811865,14.7071067811865,
4.70710678118655));
#2320=CARTESIAN_POINT('',(29.4142135623731,15.,4.41421356237309));
#2330=CARTESIAN_POINT('',(29.,15.,4.));
#2340=(BOUNDED_CURVE() B_SPLINE_CURVE(2,(#2310,#2320,#2330),
.UNSPECIFIED.,.F.,.F.) B_SPLINE_CURVE_WITH_KNOTS((3,3),(0.,1.),
.UNSPECIFIED.) CURVE() GEOMETRIC_REPRESENTATION_ITEM() 
RATIONAL_B_SPLINE_CURVE((1.,0.923879532511287,1.)) REPRESENTATION_ITEM(
''));
#2350=CARTESIAN_POINT('',(29.7071067811865,14.7071067811865,
4.70710678118655));
#2360=VERTEX_POINT('',#2350);
#2370=EDGE_CURVE('',#2360,#1820,#2340,.T.);
#2380=ORIENTED_EDGE('',*,*,#2370,.T.);
#2390=CARTESIAN_POINT('',(29.7071067811865,14.7071067811865,
4.70710678118655));
#2400=CARTESIAN_POINT('',(29.4142135623731,14.4142135623731,5.));
#2410=CARTESIAN_POINT('',(29.,14.,5.));
#2420=(BOUNDED_CURVE() B_SPLINE_CURVE(2,(#2390,#2400,#2410),
.UNSPECIFIED.,.F.,.F.) B_SPLINE_CURVE_WITH_KNOTS((3,3),(0.,1.),
.UNSPECIFIED.) CURVE() GEOMETRIC_REPRESENTATION_ITEM() 
RATIONAL_B_SPLINE_CURVE((1.,0.923879532511287,1.)) REPRESENTATION_ITEM(
''));
#2430=CARTESIAN_POINT('',(29.,14.,5.));
#2440=VERTEX_POINT('',#2430);
#2450=EDGE_CURVE('',#2360,#2440,#2420,.T.);
#2460=ORIENTED_EDGE('',*,*,#2450,.F.);
#2470=CARTESIAN_POINT('',(1.,14.,5.));
#2480=DIRECTION('',(1.,0.,0.));
#2490=VECTOR('',#2480,1.);
#2500=LINE('',#2470,#2490);
#2510=CARTESIAN_POINT('',(1.,14.,5.));
#2520=VERTEX_POINT('',#2510);
#2530=EDGE_CURVE('',#2520,#2440,#2500,.T.);
#2540=ORIENTED_EDGE('',*,*,#2530,.T.);
#2550=CARTESIAN_POINT('',(1.,14.,5.));
#2560=CARTESIAN_POINT('',(0.585786437626905,14.4142135623731,5.));
#2570=CARTESIAN_POINT('',(0.292893218813452,14.7071067811865,
4.70710678118655));
#2580=(BOUNDED_CURVE() B_SPLINE_CURVE(2,(#2550,#2560,#2570),
.UNSPECIFIED.,.F.,.F.) B_SPLINE_CURVE_WITH_KNOTS((3,3),(0.,1.),
.UNSPECIFIED.) CURVE() GEOMETRIC_REPRESENTATION_ITEM() 
RATIONAL_B_SPLINE_CURVE((1.,0.923879532511287,1.)) REPRESENTATION_ITEM(
''));
#2590=EDGE_CURVE('',#2520,#1340,#2580,.T.);
#2600=ORIENTED_EDGE('',*,*,#2590,.F.);
#2610=ORIENTED_EDGE('',*,*,#1350,.T.);
#2620=EDGE_LOOP('',(#2610,#2600,#2540,#2460,#2380,#2300));
#2630=FACE_OUTER_BOUND('',#2620,.T.);
#2640=ADVANCED_FACE('',(#2630),#2290,.T.);
#2650=CARTESIAN_POINT('',(1.,1.,-0.0470710678118655));
#2660=DIRECTION('',(0.,0.,1.));
#2670=DIRECTION('',(1.,0.,0.));
#2680=AXIS2_PLACEMENT_3D('',#2650,#2660,#2670);
#2690=CYLINDRICAL_SURFACE('',#2680,1.);
#2700=ORIENTED_EDGE('',*,*,#2140,.F.);
#2710=ORIENTED_EDGE('',*,*,#660,.F.);
#2720=ORIENTED_EDGE('',*,*,#1640,.T.);
#2730=CARTESIAN_POINT('',(7.7715611723761E-16,1.,4.));
#2740=CARTESIAN_POINT('',(6.0084837121965E-16,0.585786437626905,
4.41421356237309));
#2750=CARTESIAN_POINT('',(0.292893218813452,0.292893218813453,
4.70710678118655));
#2760=(BOUNDED_CURVE() B_SPLINE_CURVE(2,(#2730,#2740,#2750),
.UNSPECIFIED.,.F.,.F.) B_SPLINE_CURVE_WITH_KNOTS((3,3),(0.,1.),
.UNSPECIFIED.) CURVE() GEOMETRIC_REPRESENTATION_ITEM() 
RATIONAL_B_SPLINE_CURVE((1.,0.923879532511287,1.)) REPRESENTATION_ITEM(
''));
#2770=CARTESIAN_POINT('',(0.292893218813453,0.292893218813453,
4.70710678118655));
#2780=VERTEX_POINT('',#2770);
#2790=EDGE_CURVE('',#1570,#2780,#2760,.T.);
#2800=ORIENTED_EDGE('',*,*,#2790,.F.);
#2810=CARTESIAN_POINT('',(0.292893218813453,0.292893218813453,
4.70710678118655));
#2820=CARTESIAN_POINT('',(0.585786437626905,0.,4.41421356237309));
#2830=CARTESIAN_POINT('',(1.,-1.11022302462516E-16,4.));
#2840=(BOUNDED_CURVE() B_SPLINE_CURVE(2,(#2810,#2820,#2830),
.UNSPECIFIED.,.F.,.F.) B_SPLINE_CURVE_WITH_KNOTS((3,3),(0.,1.),
.UNSPECIFIED.) CURVE() GEOMETRIC_REPRESENTATION_ITEM() 
RATIONAL_B_SPLINE_CURVE((1.,0.923879532511287,1.)) REPRESENTATION_ITEM(
''));
#2850=EDGE_CURVE('',#2780,#2130,#2840,.T.);
#2860=ORIENTED_EDGE('',*,*,#2850,.F.);
#2870=EDGE_LOOP('',(#2860,#2800,#2720,#2710,#2700));
#2880=FACE_OUTER_BOUND('',#2870,.T.);
#2890=ADVANCED_FACE('',(#2880),#2690,.T.);
#2900=CARTESIAN_POINT('',(30.,0.869999999999998,-0.04));
#2910=DIRECTION('',(-1.,0.,0.));
#2920=DIRECTION('',(0.,1.,0.));
#2930=AXIS2_PLACEMENT_3D('',#2900,#2910,#2920);
#2940=PLANE('',#2930);
#2950=CARTESIAN_POINT('',(30.,0.999999999999999,4.));
#2960=DIRECTION('',(0.,0.,-1.));
#2970=VECTOR('',#2960,1.);
#2980=LINE('',#2950,#2970);
#2990=CARTESIAN_POINT('',(30.,0.999999999999998,4.));
#3000=VERTEX_POINT('',#2990);
#3010=EDGE_CURVE('',#3000,#120,#2980,.T.);
#3020=ORIENTED_EDGE('',*,*,#3010,.T.);
#3030=CARTESIAN_POINT('',(30.,0.999999999999998,4.));
#3040=DIRECTION('',(0.,1.,0.));
#3050=VECTOR('',#3040,1.);
#3060=LINE('',#3030,#3050);
#3070=CARTESIAN_POINT('',(30.,14.,4.));
#3080=VERTEX_POINT('',#3070);
#3090=EDGE_CURVE('',#3000,#3080,#3060,.T.);
#3100=ORIENTED_EDGE('',*,*,#3090,.F.);
#3110=CARTESIAN_POINT('',(30.,14.,4.));
#3120=DIRECTION('',(0.,0.,-1.));
#3130=VECTOR('',#3120,1.);
#3140=LINE('',#3110,#3130);
#3150=EDGE_CURVE('',#3080,#220,#3140,.T.);
#3160=ORIENTED_EDGE('',*,*,#3150,.F.);
#3170=ORIENTED_EDGE('',*,*,#230,.F.);
#3180=EDGE_LOOP('',(#3170,#3160,#3100,#3020));
#3190=FACE_OUTER_BOUND('',#3180,.T.);
#3200=ADVANCED_FACE('',(#3190),#2940,.F.);
#3210=CARTESIAN_POINT('',(0.999999999999998,0.148751083189721,4.));
#3220=DIRECTION('',(0.,1.,0.));
#3230=DIRECTION('',(1.,0.,0.));
#3240=AXIS2_PLACEMENT_3D('',#3210,#3220,#3230);
#3250=CYLINDRICAL_SURFACE('',#3240,0.999999999999999);
#3260=ORIENTED_EDGE('',*,*,#1410,.T.);
#3270=ORIENTED_EDGE('',*,*,#2590,.T.);
#3280=CARTESIAN_POINT('',(1.,14.,5.));
#3290=DIRECTION('',(0.,-1.,0.));
#3300=VECTOR('',#3290,1.);
#3310=LINE('',#3280,#3300);
#3320=CARTESIAN_POINT('',(1.,1.,5.));
#3330=VERTEX_POINT('',#3320);
#3340=EDGE_CURVE('',#2520,#3330,#3310,.T.);
#3350=ORIENTED_EDGE('',*,*,#3340,.F.);
#3360=CARTESIAN_POINT('',(0.292893218813452,0.292893218813452,
4.70710678118655));
#3370=CARTESIAN_POINT('',(0.585786437626905,0.585786437626905,5.));
#3380=CARTESIAN_POINT('',(1.,1.,5.));
#3390=(BOUNDED_CURVE() B_SPLINE_CURVE(2,(#3360,#3370,#3380),
.UNSPECIFIED.,.F.,.F.) B_SPLINE_CURVE_WITH_KNOTS((3,3),(0.,1.),
.UNSPECIFIED.) CURVE() GEOMETRIC_REPRESENTATION_ITEM() 
RATIONAL_B_SPLINE_CURVE((1.,0.923879532511287,1.)) REPRESENTATION_ITEM(
''));
#3400=EDGE_CURVE('',#2780,#3330,#3390,.T.);
#3410=ORIENTED_EDGE('',*,*,#3400,.T.);
#3420=ORIENTED_EDGE('',*,*,#2790,.T.);
#3430=ORIENTED_EDGE('',*,*,#1580,.T.);
#3440=EDGE_LOOP('',(#3430,#3420,#3410,#3350,#3270,#3260));
#3450=FACE_OUTER_BOUND('',#3440,.T.);
#3460=ADVANCED_FACE('',(#3450),#3250,.T.);
#3470=CARTESIAN_POINT('',(-0.00124891681027863,1.,4.));
#3480=DIRECTION('',(1.,0.,0.));
#3490=DIRECTION('',(0.,-1.,0.));
#3500=AXIS2_PLACEMENT_3D('',#3470,#3480,#3490);
#3510=CYLINDRICAL_SURFACE('',#3500,1.);
#3520=ORIENTED_EDGE('',*,*,#2200,.F.);
#3530=ORIENTED_EDGE('',*,*,#2850,.T.);
#3540=ORIENTED_EDGE('',*,*,#3400,.F.);
#3550=CARTESIAN_POINT('',(29.,1.,5.));
#3560=DIRECTION('',(-1.,0.,0.));
#3570=VECTOR('',#3560,1.);
#3580=LINE('',#3550,#3570);
#3590=CARTESIAN_POINT('',(29.,1.,5.));
#3600=VERTEX_POINT('',#3590);
#3610=EDGE_CURVE('',#3600,#3330,#3580,.T.);
#3620=ORIENTED_EDGE('',*,*,#3610,.T.);
#3630=CARTESIAN_POINT('',(29.,1.,5.));
#3640=CARTESIAN_POINT('',(29.4142135623731,0.585786437626906,5.));
#3650=CARTESIAN_POINT('',(29.7071067811865,0.292893218813454,
4.70710678118655));
#3660=(BOUNDED_CURVE() B_SPLINE_CURVE(2,(#3630,#3640,#3650),
.UNSPECIFIED.,.F.,.F.) B_SPLINE_CURVE_WITH_KNOTS((3,3),(0.,1.),
.UNSPECIFIED.) CURVE() GEOMETRIC_REPRESENTATION_ITEM() 
RATIONAL_B_SPLINE_CURVE((1.,0.923879532511287,1.)) REPRESENTATION_ITEM(
''));
#3670=CARTESIAN_POINT('',(29.7071067811865,0.292893218813454,
4.70710678118655));
#3680=VERTEX_POINT('',#3670);
#3690=EDGE_CURVE('',#3600,#3680,#3660,.T.);
#3700=ORIENTED_EDGE('',*,*,#3690,.F.);
#3710=CARTESIAN_POINT('',(29.,-7.7715611723761E-16,4.));
#3720=CARTESIAN_POINT('',(29.4142135623731,-9.61357393951441E-16,
4.4142135623731));
#3730=CARTESIAN_POINT('',(29.7071067811865,0.292893218813453,
4.70710678118655));
#3740=(BOUNDED_CURVE() B_SPLINE_CURVE(2,(#3710,#3720,#3730),
.UNSPECIFIED.,.F.,.F.) B_SPLINE_CURVE_WITH_KNOTS((3,3),(0.,1.),
.UNSPECIFIED.) CURVE() GEOMETRIC_REPRESENTATION_ITEM() 
RATIONAL_B_SPLINE_CURVE((1.,0.923879532511286,1.)) REPRESENTATION_ITEM(
''));
#3750=EDGE_CURVE('',#2040,#3680,#3740,.T.);
#3760=ORIENTED_EDGE('',*,*,#3750,.T.);
#3770=EDGE_LOOP('',(#3760,#3700,#3620,#3540,#3530,#3520));
#3780=FACE_OUTER_BOUND('',#3770,.T.);
#3790=ADVANCED_FACE('',(#3780),#3510,.T.);
#3800=CARTESIAN_POINT('',(29.,0.999999999999996,-0.0470710678118655));
#3810=DIRECTION('',(0.,0.,1.));
#3820=DIRECTION('',(1.,0.,0.));
#3830=AXIS2_PLACEMENT_3D('',#3800,#3810,#3820);
#3840=CYLINDRICAL_SURFACE('',#3830,0.999999999999999);
#3850=ORIENTED_EDGE('',*,*,#3010,.F.);
#3860=ORIENTED_EDGE('',*,*,#150,.F.);
#3870=ORIENTED_EDGE('',*,*,#2050,.T.);
#3880=ORIENTED_EDGE('',*,*,#3750,.F.);
#3890=CARTESIAN_POINT('',(29.7071067811865,0.292893218813453,
4.70710678118655));
#3900=CARTESIAN_POINT('',(30.,0.585786437626905,4.41421356237309));
#3910=CARTESIAN_POINT('',(30.,0.999999999999999,4.));
#3920=(BOUNDED_CURVE() B_SPLINE_CURVE(2,(#3890,#3900,#3910),
.UNSPECIFIED.,.F.,.F.) B_SPLINE_CURVE_WITH_KNOTS((3,3),(0.,1.),
.UNSPECIFIED.) CURVE() GEOMETRIC_REPRESENTATION_ITEM() 
RATIONAL_B_SPLINE_CURVE((1.,0.923879532511287,1.)) REPRESENTATION_ITEM(
''));
#3930=EDGE_CURVE('',#3680,#3000,#3920,.T.);
#3940=ORIENTED_EDGE('',*,*,#3930,.F.);
#3950=EDGE_LOOP('',(#3940,#3880,#3870,#3860,#3850));
#3960=FACE_OUTER_BOUND('',#3950,.T.);
#3970=ADVANCED_FACE('',(#3960),#3840,.T.);
#3980=CARTESIAN_POINT('',(29.,14.,-0.0470710678118655));
#3990=DIRECTION('',(0.,0.,1.));
#4000=DIRECTION('',(1.,0.,0.));
#4010=AXIS2_PLACEMENT_3D('',#3980,#3990,#4000);
#4020=CYLINDRICAL_SURFACE('',#4010,1.);
#4030=ORIENTED_EDGE('',*,*,#1830,.F.);
#4040=ORIENTED_EDGE('',*,*,#320,.F.);
#4050=ORIENTED_EDGE('',*,*,#3150,.T.);
#4060=CARTESIAN_POINT('',(30.,14.,4.));
#4070=CARTESIAN_POINT('',(30.,14.4142135623731,4.41421356237309));
#4080=CARTESIAN_POINT('',(29.7071067811865,14.7071067811865,
4.70710678118655));
#4090=(BOUNDED_CURVE() B_SPLINE_CURVE(2,(#4060,#4070,#4080),
.UNSPECIFIED.,.F.,.F.) B_SPLINE_CURVE_WITH_KNOTS((3,3),(0.,1.),
.UNSPECIFIED.) CURVE() GEOMETRIC_REPRESENTATION_ITEM() 
RATIONAL_B_SPLINE_CURVE((1.,0.923879532511287,1.)) REPRESENTATION_ITEM(
''));
#4100=EDGE_CURVE('',#3080,#2360,#4090,.T.);
#4110=ORIENTED_EDGE('',*,*,#4100,.F.);
#4120=ORIENTED_EDGE('',*,*,#2370,.F.);
#4130=EDGE_LOOP('',(#4120,#4110,#4050,#4040,#4030));
#4140=FACE_OUTER_BOUND('',#4130,.T.);
#4150=ADVANCED_FACE('',(#4140),#4020,.T.);
#4160=CARTESIAN_POINT('',(29.,14.8512489168103,4.));
#4170=DIRECTION('',(0.,-1.,0.));
#4180=DIRECTION('',(-1.,0.,0.));
#4190=AXIS2_PLACEMENT_3D('',#4160,#4170,#4180);
#4200=CYLINDRICAL_SURFACE('',#4190,0.999999999999992);
#4210=ORIENTED_EDGE('',*,*,#3930,.T.);
#4220=ORIENTED_EDGE('',*,*,#3690,.T.);
#4230=CARTESIAN_POINT('',(29.,1.,5.));
#4240=DIRECTION('',(0.,1.,0.));
#4250=VECTOR('',#4240,1.);
#4260=LINE('',#4230,#4250);
#4270=EDGE_CURVE('',#3600,#2440,#4260,.T.);
#4280=ORIENTED_EDGE('',*,*,#4270,.F.);
#4290=ORIENTED_EDGE('',*,*,#2450,.T.);
#4300=ORIENTED_EDGE('',*,*,#4100,.T.);
#4310=ORIENTED_EDGE('',*,*,#3090,.T.);
#4320=EDGE_LOOP('',(#4310,#4300,#4290,#4280,#4220,#4210));
#4330=FACE_OUTER_BOUND('',#4320,.T.);
#4340=ADVANCED_FACE('',(#4330),#4200,.T.);
#4350=CARTESIAN_POINT('',(0.720000000000001,0.87,5.));
#4360=DIRECTION('',(0.,0.,1.));
#4370=DIRECTION('',(1.,0.,0.));
#4380=AXIS2_PLACEMENT_3D('',#4350,#4360,#4370);
#4390=PLANE('',#4380);
#4400=ORIENTED_EDGE('',*,*,#4270,.T.);
#4410=ORIENTED_EDGE('',*,*,#3610,.F.);
#4420=ORIENTED_EDGE('',*,*,#3340,.T.);
#4430=ORIENTED_EDGE('',*,*,#2530,.F.);
#4440=EDGE_LOOP('',(#4430,#4420,#4410,#4400));
#4450=FACE_OUTER_BOUND('',#4440,.T.);
#4460=ADVANCED_FACE('',(#4450),#4390,.T.);
#4470=CARTESIAN_POINT('',(15.,7.5,-10.));
#4480=DIRECTION('',(0.,0.,-1.));
#4490=DIRECTION('',(0.,1.,0.));
#4500=AXIS2_PLACEMENT_3D('',#4470,#4480,#4490);
#4510=PLANE('',#4500);
#4520=CARTESIAN_POINT('',(26.5,7.49999999999999,-10.));
#4530=DIRECTION('',(0.,0.,-1.));
#4540=DIRECTION('',(0.,1.,0.));
#4550=AXIS2_PLACEMENT_3D('',#4520,#4530,#4540);
#4560=CIRCLE('',#4550,2.2);
#4570=CARTESIAN_POINT('',(26.5,9.69999999999999,-10.));
#4580=VERTEX_POINT('',#4570);
#4590=CARTESIAN_POINT('',(26.5,5.29999999999999,-10.));
#4600=VERTEX_POINT('',#4590);
#4610=EDGE_CURVE('',#4580,#4600,#4560,.T.);
#4620=ORIENTED_EDGE('',*,*,#4610,.T.);
#4630=EDGE_CURVE('',#4600,#4580,#4560,.T.);
#4640=ORIENTED_EDGE('',*,*,#4630,.T.);
#4650=EDGE_LOOP('',(#4640,#4620));
#4660=FACE_OUTER_BOUND('',#4650,.T.);
#4670=ADVANCED_FACE('',(#4660),#4510,.T.);
#4680=CARTESIAN_POINT('',(26.5,7.49999999999999,0.));
#4690=DIRECTION('',(0.,0.,-1.));
#4700=DIRECTION('',(0.,1.,0.));
#4710=AXIS2_PLACEMENT_3D('',#4680,#4690,#4700);
#4720=CYLINDRICAL_SURFACE('',#4710,2.2);
#4730=CARTESIAN_POINT('',(26.5,9.69999999999999,0.));
#4740=DIRECTION('',(0.,0.,-1.));
#4750=VECTOR('',#4740,1.);
#4760=LINE('',#4730,#4750);
#4770=EDGE_CURVE('',#820,#4580,#4760,.T.);
#4780=ORIENTED_EDGE('',*,*,#4770,.T.);
#4790=ORIENTED_EDGE('',*,*,#870,.T.);
#4800=CARTESIAN_POINT('',(26.5,5.29999999999999,0.));
#4810=DIRECTION('',(0.,0.,-1.));
#4820=VECTOR('',#4810,1.);
#4830=LINE('',#4800,#4820);
#4840=EDGE_CURVE('',#840,#4600,#4830,.T.);
#4850=ORIENTED_EDGE('',*,*,#4840,.F.);
#4860=ORIENTED_EDGE('',*,*,#4630,.F.);
#4870=EDGE_LOOP('',(#4860,#4850,#4790,#4780));
#4880=FACE_OUTER_BOUND('',#4870,.T.);
#4890=ADVANCED_FACE('',(#4880),#4720,.T.);
#4900=CARTESIAN_POINT('',(15.,7.5,-10.));
#4910=DIRECTION('',(0.,0.,-1.));
#4920=DIRECTION('',(0.,1.,0.));
#4930=AXIS2_PLACEMENT_3D('',#4900,#4910,#4920);
#4940=PLANE('',#4930);
#4950=CARTESIAN_POINT('',(3.5,7.49999999999999,-10.));
#4960=DIRECTION('',(0.,0.,-1.));
#4970=DIRECTION('',(0.,1.,0.));
#4980=AXIS2_PLACEMENT_3D('',#4950,#4960,#4970);
#4990=CIRCLE('',#4980,2.2);
#5000=CARTESIAN_POINT('',(3.5,9.69999999999999,-10.));
#5010=VERTEX_POINT('',#5000);
#5020=CARTESIAN_POINT('',(3.5,5.29999999999999,-10.));
#5030=VERTEX_POINT('',#5020);
#5040=EDGE_CURVE('',#5010,#5030,#4990,.T.);
#5050=ORIENTED_EDGE('',*,*,#5040,.T.);
#5060=EDGE_CURVE('',#5030,#5010,#4990,.T.);
#5070=ORIENTED_EDGE('',*,*,#5060,.T.);
#5080=EDGE_LOOP('',(#5070,#5050));
#5090=FACE_OUTER_BOUND('',#5080,.T.);
#5100=ADVANCED_FACE('',(#5090),#4940,.T.);
#5110=CARTESIAN_POINT('',(3.5,7.49999999999999,0.));
#5120=DIRECTION('',(0.,0.,-1.));
#5130=DIRECTION('',(0.,1.,0.));
#5140=AXIS2_PLACEMENT_3D('',#5110,#5120,#5130);
#5150=CYLINDRICAL_SURFACE('',#5140,2.2);
#5160=CARTESIAN_POINT('',(3.5,9.69999999999999,0.));
#5170=DIRECTION('',(0.,0.,-1.));
#5180=VECTOR('',#5170,1.);
#5190=LINE('',#5160,#5180);
#5200=EDGE_CURVE('',#970,#5010,#5190,.T.);
#5210=ORIENTED_EDGE('',*,*,#5200,.T.);
#5220=ORIENTED_EDGE('',*,*,#1020,.T.);
#5230=CARTESIAN_POINT('',(3.5,5.29999999999999,0.));
#5240=DIRECTION('',(0.,0.,-1.));
#5250=VECTOR('',#5240,1.);
#5260=LINE('',#5230,#5250);
#5270=EDGE_CURVE('',#990,#5030,#5260,.T.);
#5280=ORIENTED_EDGE('',*,*,#5270,.F.);
#5290=ORIENTED_EDGE('',*,*,#5060,.F.);
#5300=EDGE_LOOP('',(#5290,#5280,#5220,#5210));
#5310=FACE_OUTER_BOUND('',#5300,.T.);
#5320=ADVANCED_FACE('',(#5310),#5150,.T.);
#5330=CARTESIAN_POINT('',(26.5,7.49999999999999,0.));
#5340=DIRECTION('',(0.,0.,-1.));
#5350=DIRECTION('',(0.,1.,0.));
#5360=AXIS2_PLACEMENT_3D('',#5330,#5340,#5350);
#5370=CYLINDRICAL_SURFACE('',#5360,2.2);
#5380=ORIENTED_EDGE('',*,*,#4610,.F.);
#5390=ORIENTED_EDGE('',*,*,#4840,.T.);
#5400=ORIENTED_EDGE('',*,*,#850,.T.);
#5410=ORIENTED_EDGE('',*,*,#4770,.F.);
#5420=EDGE_LOOP('',(#5410,#5400,#5390,#5380));
#5430=FACE_OUTER_BOUND('',#5420,.T.);
#5440=ADVANCED_FACE('',(#5430),#5370,.T.);
#5450=CARTESIAN_POINT('',(3.5,7.49999999999999,0.));
#5460=DIRECTION('',(0.,0.,-1.));
#5470=DIRECTION('',(0.,1.,0.));
#5480=AXIS2_PLACEMENT_3D('',#5450,#5460,#5470);
#5490=CYLINDRICAL_SURFACE('',#5480,2.2);
#5500=ORIENTED_EDGE('',*,*,#5040,.F.);
#5510=ORIENTED_EDGE('',*,*,#5270,.T.);
#5520=ORIENTED_EDGE('',*,*,#1000,.T.);
#5530=ORIENTED_EDGE('',*,*,#5200,.F.);
#5540=EDGE_LOOP('',(#5530,#5520,#5510,#5500));
#5550=FACE_OUTER_BOUND('',#5540,.T.);
#5560=ADVANCED_FACE('',(#5550),#5490,.T.);
#5570=CLOSED_SHELL('',(#1060,#1450,#1690,#1930,#2240,#2640,#2890,#3200,
#3460,#3790,#3970,#4150,#4340,#4460,#4670,#4890,#5100,#5320,#5440,#5560)
);
#5580=MANIFOLD_SOLID_BREP('',#5570);
#5590=CARTESIAN_POINT('',(0.,0.,0.));
#5600=DIRECTION('',(0.,0.,1.));
#5610=DIRECTION('',(1.,0.,0.));
#5620=AXIS2_PLACEMENT_3D('',#5590,#5600,#5610);
#5630=APPLICATION_CONTEXT(' ');
#5640=APPLICATION_PROTOCOL_DEFINITION(' ','automotive_design',1998,#5630
);
#5650=PRODUCT_CONTEXT('',#5630,'mechanical');
#5660=PRODUCT_DEFINITION_CONTEXT('part definition',#5630,'design');
#5670=PRODUCT('Abdeckkappe-MMS-33_30x15_33.0306_PX176195',
'Abdeckkappe-MMS-33_30x15_33.0306_PX176195','',(#5650));
#5680=PRODUCT_RELATED_PRODUCT_CATEGORY('part',' ',(#5670));
#5690=PRODUCT_DEFINITION_FORMATION_WITH_SPECIFIED_SOURCE('','',#5670,
.BOUGHT.);
#5700=PRODUCT_DEFINITION('',' ',#5690,#5660);
#5710=PRODUCT_DEFINITION_SHAPE('','',#5700);
#5720=DIMENSIONAL_EXPONENTS(1.,0.,0.,0.,0.,0.,0.);
#5730=DIMENSIONAL_EXPONENTS(0.,0.,0.,0.,0.,0.,0.);
#5740=DIMENSIONAL_EXPONENTS(0.,0.,0.,0.,0.,0.,0.);
#5750=(LENGTH_UNIT() NAMED_UNIT(*) SI_UNIT(.MILLI.,.METRE.));
#5760=(NAMED_UNIT(*) PLANE_ANGLE_UNIT() SI_UNIT($,.RADIAN.));
#5770=(NAMED_UNIT(*) SI_UNIT($,.STERADIAN.) SOLID_ANGLE_UNIT());
#5780=(GEOMETRIC_REPRESENTATION_CONTEXT(3) 
GLOBAL_UNCERTAINTY_ASSIGNED_CONTEXT((#5790)) 
GLOBAL_UNIT_ASSIGNED_CONTEXT((#5750,#5760,#5770)) REPRESENTATION_CONTEXT
('',''));
#5790=UNCERTAINTY_MEASURE_WITH_UNIT(LENGTH_MEASURE(1.E-6),#5750,
'distance_accuracy_value','maximum gap value');
#5800=ADVANCED_BREP_SHAPE_REPRESENTATION('',(#5620,#5580),#5780);
#5810=SHAPE_DEFINITION_REPRESENTATION(#5710,#5800);
#5820=COLOUR_RGB('',0.0823529437184334,0.0862745121121407,
0.0980392247438431);
#5830=FILL_AREA_STYLE_COLOUR('',#5820);
#5840=FILL_AREA_STYLE('',(#5830));
#5850=SURFACE_STYLE_FILL_AREA(#5840);
#5860=SURFACE_SIDE_STYLE('',(#5850));
#5870=SURFACE_STYLE_USAGE(.BOTH.,#5860);
#5880=PRESENTATION_STYLE_ASSIGNMENT((#5870));
#5890=STYLED_ITEM('',(#5880),#5580);
#5900=DRAUGHTING_MODEL('',(#5890),#5780);
#5910=CARTESIAN_POINT('',(16.,4.44089209850062E-16,0.));
#5920=DIRECTION('',(0.,0.,1.));
#5930=DIRECTION('',(0.,1.,0.));
#5940=AXIS2_PLACEMENT_3D('',#5910,#5920,#5930);
#5950=ITEM_DEFINED_TRANSFORMATION(
'Abdeckkappe-MMS-33_30x15_33.0306_PX176195','',#5620,#5940);
#5960=APPLICATION_CONTEXT(' ');
#5970=APPLICATION_PROTOCOL_DEFINITION(' ','automotive_design',1998,#5960
);
#5980=PRODUCT_CONTEXT('',#5960,'mechanical');
#5990=PRODUCT_DEFINITION_CONTEXT('part definition',#5960,'design');
#6000=PRODUCT('Abdeckkappe-MMS-33_30x15_33.0306_PX176195',
'Abdeckkappe-MMS-33_30x15_33.0306_PX176195','',(#5980));
#6010=PRODUCT_RELATED_PRODUCT_CATEGORY('part',' ',(#6000));
#6020=PRODUCT_DEFINITION_FORMATION_WITH_SPECIFIED_SOURCE('','',#6000,
.BOUGHT.);
#6030=PRODUCT_DEFINITION('',' ',#6020,#5990);
#6040=PRODUCT_DEFINITION_SHAPE('','',#6030);
#6050=DIMENSIONAL_EXPONENTS(1.,0.,0.,0.,0.,0.,0.);
#6060=DIMENSIONAL_EXPONENTS(0.,0.,0.,0.,0.,0.,0.);
#6070=DIMENSIONAL_EXPONENTS(0.,0.,0.,0.,0.,0.,0.);
#6080=(LENGTH_UNIT() NAMED_UNIT(*) SI_UNIT(.MILLI.,.METRE.));
#6090=(NAMED_UNIT(*) PLANE_ANGLE_UNIT() SI_UNIT($,.RADIAN.));
#6100=(NAMED_UNIT(*) SI_UNIT($,.STERADIAN.) SOLID_ANGLE_UNIT());
#6110=(GEOMETRIC_REPRESENTATION_CONTEXT(3) 
GLOBAL_UNCERTAINTY_ASSIGNED_CONTEXT((#6120)) 
GLOBAL_UNIT_ASSIGNED_CONTEXT((#6080,#6090,#6100)) REPRESENTATION_CONTEXT
('',''));
#6120=UNCERTAINTY_MEASURE_WITH_UNIT(LENGTH_MEASURE(1.E-6),#6080,
'distance_accuracy_value','maximum gap value');
#6130=SHAPE_REPRESENTATION('',(#5620,#5940),#6110);
#6140=SHAPE_DEFINITION_REPRESENTATION(#6040,#6130);
#6150=(REPRESENTATION_RELATIONSHIP('','',#5800,#6130) 
REPRESENTATION_RELATIONSHIP_WITH_TRANSFORMATION(#5950) 
SHAPE_REPRESENTATION_RELATIONSHIP());
#6160=NEXT_ASSEMBLY_USAGE_OCCURRENCE('1','',
'Abdeckkappe-MMS-33_30x15_33.0306_PX176195',#6030,#5700,'');
#6170=PRODUCT_DEFINITION_SHAPE('','',#6160);
#6180=CONTEXT_DEPENDENT_SHAPE_REPRESENTATION(#6150,#6170);
ENDSEC;
END-ISO-10303-21;
