ISO-10303-21;
HEADER;
FILE_DESCRIPTION(('Creo Elements/Direct Modeling STEP Export'),'2;1');
FILE_NAME(
'//KR-CAD2/PhoenixTemp/karl.letzgus/Konvertierung/44.0205.7_Haltewinkel-
MMS-44_50x40x40x5.stp','2022-03-21T 8:57:55',(''),(''),
'PTC Creo Elements/Direct Modeling STEP processor for AP214 (Solid Model
)',
'PTC Creo Elements/Direct Modeling 19.0C  15-Aug-2015 (C) Parametric Tec
hnology GmbH','');
FILE_SCHEMA(('AUTOMOTIVE_DESIGN { 1 0 10303 214 1 1 1 1 }'));
ENDSEC;
DATA;
#10=CARTESIAN_POINT('',(0.,0.,0.));
#20=DIRECTION('',(0.,0.,1.));
#30=DIRECTION('',(1.,0.,0.));
#40=AXIS2_PLACEMENT_3D('',#10,#20,#30);
#50=PLANE('',#40);
#60=CARTESIAN_POINT('',(40.,40.,0.));
#70=DIRECTION('',(-1.,0.,0.));
#80=VECTOR('',#70,1.);
#90=LINE('',#60,#80);
#100=CARTESIAN_POINT('',(40.,40.,0.));
#110=VERTEX_POINT('',#100);
#120=CARTESIAN_POINT('',(0.,40.,0.));
#130=VERTEX_POINT('',#120);
#140=EDGE_CURVE('',#110,#130,#90,.T.);
#150=ORIENTED_EDGE('',*,*,#140,.F.);
#160=CARTESIAN_POINT('',(0.,40.,0.));
#170=DIRECTION('',(0.,-1.,0.));
#180=VECTOR('',#170,1.);
#190=LINE('',#160,#180);
#200=CARTESIAN_POINT('',(0.,-10.,0.));
#210=VERTEX_POINT('',#200);
#220=EDGE_CURVE('',#130,#210,#190,.T.);
#230=ORIENTED_EDGE('',*,*,#220,.F.);
#240=CARTESIAN_POINT('',(0.,-10.,0.));
#250=DIRECTION('',(1.,0.,0.));
#260=VECTOR('',#250,1.);
#270=LINE('',#240,#260);
#280=CARTESIAN_POINT('',(5.,-10.,0.));
#290=VERTEX_POINT('',#280);
#300=EDGE_CURVE('',#210,#290,#270,.T.);
#310=ORIENTED_EDGE('',*,*,#300,.F.);
#320=CARTESIAN_POINT('',(5.,0.,0.));
#330=DIRECTION('',(0.,-1.,0.));
#340=VECTOR('',#330,1.);
#350=LINE('',#320,#340);
#360=CARTESIAN_POINT('',(5.,35.,0.));
#370=VERTEX_POINT('',#360);
#380=EDGE_CURVE('',#370,#290,#350,.T.);
#390=ORIENTED_EDGE('',*,*,#380,.T.);
#400=CARTESIAN_POINT('',(0.,35.,0.));
#410=DIRECTION('',(-1.,0.,0.));
#420=VECTOR('',#410,1.);
#430=LINE('',#400,#420);
#440=CARTESIAN_POINT('',(40.,35.,0.));
#450=VERTEX_POINT('',#440);
#460=EDGE_CURVE('',#450,#370,#430,.T.);
#470=ORIENTED_EDGE('',*,*,#460,.T.);
#480=CARTESIAN_POINT('',(40.,0.,0.));
#490=DIRECTION('',(0.,1.,0.));
#500=VECTOR('',#490,1.);
#510=LINE('',#480,#500);
#520=EDGE_CURVE('',#450,#110,#510,.T.);
#530=ORIENTED_EDGE('',*,*,#520,.F.);
#540=EDGE_LOOP('',(#530,#470,#390,#310,#230,#150));
#550=FACE_OUTER_BOUND('',#540,.T.);
#560=ADVANCED_FACE('',(#550),#50,.F.);
#570=CARTESIAN_POINT('',(5.,35.,-4.0000024));
#580=DIRECTION('',(-0.,1.,0.));
#590=DIRECTION('',(1.,0.,0.));
#600=AXIS2_PLACEMENT_3D('',#570,#580,#590);
#610=PLANE('',#600);
#620=CARTESIAN_POINT('',(20.,35.,20.));
#630=DIRECTION('',(0.,1.,0.));
#640=DIRECTION('',(1.,0.,0.));
#650=AXIS2_PLACEMENT_3D('',#620,#630,#640);
#660=CIRCLE('',#650,4.5);
#670=CARTESIAN_POINT('',(24.5,35.,20.));
#680=VERTEX_POINT('',#670);
#690=CARTESIAN_POINT('',(15.5,35.,20.));
#700=VERTEX_POINT('',#690);
#710=EDGE_CURVE('',#680,#700,#660,.T.);
#720=ORIENTED_EDGE('',*,*,#710,.T.);
#730=EDGE_CURVE('',#700,#680,#660,.T.);
#740=ORIENTED_EDGE('',*,*,#730,.T.);
#750=EDGE_LOOP('',(#740,#720));
#760=FACE_BOUND('',#750,.T.);
#770=CARTESIAN_POINT('',(40.,35.,0.));
#780=DIRECTION('',(0.,0.,1.));
#790=VECTOR('',#780,1.);
#800=LINE('',#770,#790);
#810=CARTESIAN_POINT('',(40.,35.,40.));
#820=VERTEX_POINT('',#810);
#830=EDGE_CURVE('',#450,#820,#800,.T.);
#840=ORIENTED_EDGE('',*,*,#830,.T.);
#850=ORIENTED_EDGE('',*,*,#460,.F.);
#860=CARTESIAN_POINT('',(5.,35.,-4.0000024));
#870=DIRECTION('',(0.,0.,1.));
#880=VECTOR('',#870,1.);
#890=LINE('',#860,#880);
#900=CARTESIAN_POINT('',(5.,35.,40.));
#910=VERTEX_POINT('',#900);
#920=EDGE_CURVE('',#370,#910,#890,.T.);
#930=ORIENTED_EDGE('',*,*,#920,.F.);
#940=CARTESIAN_POINT('',(0.,35.,40.));
#950=DIRECTION('',(-1.,0.,0.));
#960=VECTOR('',#950,1.);
#970=LINE('',#940,#960);
#980=EDGE_CURVE('',#820,#910,#970,.T.);
#990=ORIENTED_EDGE('',*,*,#980,.T.);
#1000=EDGE_LOOP('',(#990,#930,#850,#840));
#1010=FACE_OUTER_BOUND('',#1000,.T.);
#1020=ADVANCED_FACE('',(#760,#1010),#610,.F.);
#1030=CARTESIAN_POINT('',(5.,-8.8,-4.0000024));
#1040=DIRECTION('',(-1.,0.,0.));
#1050=DIRECTION('',(0.,1.,0.));
#1060=AXIS2_PLACEMENT_3D('',#1030,#1040,#1050);
#1070=PLANE('',#1060);
#1080=CARTESIAN_POINT('',(5.,15.,20.));
#1090=DIRECTION('',(-1.,0.,0.));
#1100=DIRECTION('',(0.,1.,0.));
#1110=AXIS2_PLACEMENT_3D('',#1080,#1090,#1100);
#1120=CIRCLE('',#1110,4.5);
#1130=CARTESIAN_POINT('',(5.,19.5,20.));
#1140=VERTEX_POINT('',#1130);
#1150=CARTESIAN_POINT('',(5.,10.5,20.));
#1160=VERTEX_POINT('',#1150);
#1170=EDGE_CURVE('',#1140,#1160,#1120,.T.);
#1180=ORIENTED_EDGE('',*,*,#1170,.T.);
#1190=EDGE_CURVE('',#1160,#1140,#1120,.T.);
#1200=ORIENTED_EDGE('',*,*,#1190,.T.);
#1210=EDGE_LOOP('',(#1200,#1180));
#1220=FACE_BOUND('',#1210,.T.);
#1230=ORIENTED_EDGE('',*,*,#920,.T.);
#1240=ORIENTED_EDGE('',*,*,#380,.F.);
#1250=CARTESIAN_POINT('',(5.,-10.,0.));
#1260=DIRECTION('',(0.,0.,-1.));
#1270=VECTOR('',#1260,1.);
#1280=LINE('',#1250,#1270);
#1290=CARTESIAN_POINT('',(5.,-10.,40.));
#1300=VERTEX_POINT('',#1290);
#1310=EDGE_CURVE('',#1300,#290,#1280,.T.);
#1320=ORIENTED_EDGE('',*,*,#1310,.T.);
#1330=CARTESIAN_POINT('',(5.,0.,40.));
#1340=DIRECTION('',(0.,-1.,0.));
#1350=VECTOR('',#1340,1.);
#1360=LINE('',#1330,#1350);
#1370=EDGE_CURVE('',#910,#1300,#1360,.T.);
#1380=ORIENTED_EDGE('',*,*,#1370,.T.);
#1390=EDGE_LOOP('',(#1380,#1320,#1240,#1230));
#1400=FACE_OUTER_BOUND('',#1390,.T.);
#1410=ADVANCED_FACE('',(#1220,#1400),#1070,.F.);
#1420=CARTESIAN_POINT('',(450.,15.,20.));
#1430=DIRECTION('',(-1.,0.,0.));
#1440=DIRECTION('',(0.,1.,0.));
#1450=AXIS2_PLACEMENT_3D('',#1420,#1430,#1440);
#1460=CYLINDRICAL_SURFACE('',#1450,4.5);
#1470=CARTESIAN_POINT('',(450.,19.5,20.));
#1480=DIRECTION('',(-1.,0.,0.));
#1490=VECTOR('',#1480,1.);
#1500=LINE('',#1470,#1490);
#1510=CARTESIAN_POINT('',(0.,19.5,20.));
#1520=VERTEX_POINT('',#1510);
#1530=EDGE_CURVE('',#1140,#1520,#1500,.T.);
#1540=ORIENTED_EDGE('',*,*,#1530,.F.);
#1550=CARTESIAN_POINT('',(0.,15.,20.));
#1560=DIRECTION('',(-1.,0.,0.));
#1570=DIRECTION('',(0.,1.,0.));
#1580=AXIS2_PLACEMENT_3D('',#1550,#1560,#1570);
#1590=CIRCLE('',#1580,4.5);
#1600=CARTESIAN_POINT('',(0.,10.5,20.));
#1610=VERTEX_POINT('',#1600);
#1620=EDGE_CURVE('',#1610,#1520,#1590,.T.);
#1630=ORIENTED_EDGE('',*,*,#1620,.T.);
#1640=CARTESIAN_POINT('',(450.,10.5,20.));
#1650=DIRECTION('',(-1.,0.,0.));
#1660=VECTOR('',#1650,1.);
#1670=LINE('',#1640,#1660);
#1680=EDGE_CURVE('',#1160,#1610,#1670,.T.);
#1690=ORIENTED_EDGE('',*,*,#1680,.T.);
#1700=ORIENTED_EDGE('',*,*,#1190,.F.);
#1710=EDGE_LOOP('',(#1700,#1690,#1630,#1540));
#1720=FACE_OUTER_BOUND('',#1710,.T.);
#1730=ADVANCED_FACE('',(#1720),#1460,.F.);
#1740=CARTESIAN_POINT('',(450.,15.,20.));
#1750=DIRECTION('',(-1.,0.,0.));
#1760=DIRECTION('',(0.,1.,0.));
#1770=AXIS2_PLACEMENT_3D('',#1740,#1750,#1760);
#1780=CYLINDRICAL_SURFACE('',#1770,4.5);
#1790=ORIENTED_EDGE('',*,*,#1170,.F.);
#1800=ORIENTED_EDGE('',*,*,#1680,.F.);
#1810=EDGE_CURVE('',#1520,#1610,#1590,.T.);
#1820=ORIENTED_EDGE('',*,*,#1810,.T.);
#1830=ORIENTED_EDGE('',*,*,#1530,.T.);
#1840=EDGE_LOOP('',(#1830,#1820,#1800,#1790));
#1850=FACE_OUTER_BOUND('',#1840,.T.);
#1860=ADVANCED_FACE('',(#1850),#1780,.F.);
#1870=CARTESIAN_POINT('',(0.,0.,40.));
#1880=DIRECTION('',(0.,0.,1.));
#1890=DIRECTION('',(1.,0.,0.));
#1900=AXIS2_PLACEMENT_3D('',#1870,#1880,#1890);
#1910=PLANE('',#1900);
#1920=ORIENTED_EDGE('',*,*,#980,.F.);
#1930=ORIENTED_EDGE('',*,*,#1370,.F.);
#1940=CARTESIAN_POINT('',(0.,-10.,40.));
#1950=DIRECTION('',(1.,0.,0.));
#1960=VECTOR('',#1950,1.);
#1970=LINE('',#1940,#1960);
#1980=CARTESIAN_POINT('',(0.,-10.,40.));
#1990=VERTEX_POINT('',#1980);
#2000=EDGE_CURVE('',#1990,#1300,#1970,.T.);
#2010=ORIENTED_EDGE('',*,*,#2000,.T.);
#2020=CARTESIAN_POINT('',(0.,40.,40.));
#2030=DIRECTION('',(0.,-1.,0.));
#2040=VECTOR('',#2030,1.);
#2050=LINE('',#2020,#2040);
#2060=CARTESIAN_POINT('',(0.,40.,40.));
#2070=VERTEX_POINT('',#2060);
#2080=EDGE_CURVE('',#2070,#1990,#2050,.T.);
#2090=ORIENTED_EDGE('',*,*,#2080,.T.);
#2100=CARTESIAN_POINT('',(40.,40.,40.));
#2110=DIRECTION('',(-1.,0.,0.));
#2120=VECTOR('',#2110,1.);
#2130=LINE('',#2100,#2120);
#2140=CARTESIAN_POINT('',(40.,40.,40.));
#2150=VERTEX_POINT('',#2140);
#2160=EDGE_CURVE('',#2150,#2070,#2130,.T.);
#2170=ORIENTED_EDGE('',*,*,#2160,.T.);
#2180=CARTESIAN_POINT('',(40.,0.,40.));
#2190=DIRECTION('',(0.,1.,0.));
#2200=VECTOR('',#2190,1.);
#2210=LINE('',#2180,#2200);
#2220=EDGE_CURVE('',#820,#2150,#2210,.T.);
#2230=ORIENTED_EDGE('',*,*,#2220,.T.);
#2240=EDGE_LOOP('',(#2230,#2170,#2090,#2010,#1930,#1920));
#2250=FACE_OUTER_BOUND('',#2240,.T.);
#2260=ADVANCED_FACE('',(#2250),#1910,.T.);
#2270=CARTESIAN_POINT('',(0.,0.,0.));
#2280=DIRECTION('',(-1.,0.,0.));
#2290=DIRECTION('',(0.,1.,0.));
#2300=AXIS2_PLACEMENT_3D('',#2270,#2280,#2290);
#2310=PLANE('',#2300);
#2320=ORIENTED_EDGE('',*,*,#1810,.F.);
#2330=ORIENTED_EDGE('',*,*,#1620,.F.);
#2340=EDGE_LOOP('',(#2330,#2320));
#2350=FACE_BOUND('',#2340,.T.);
#2360=CARTESIAN_POINT('',(0.,40.,0.));
#2370=DIRECTION('',(0.,0.,1.));
#2380=VECTOR('',#2370,1.);
#2390=LINE('',#2360,#2380);
#2400=EDGE_CURVE('',#130,#2070,#2390,.T.);
#2410=ORIENTED_EDGE('',*,*,#2400,.F.);
#2420=ORIENTED_EDGE('',*,*,#2080,.F.);
#2430=CARTESIAN_POINT('',(0.,-10.,0.));
#2440=DIRECTION('',(0.,0.,1.));
#2450=VECTOR('',#2440,1.);
#2460=LINE('',#2430,#2450);
#2470=EDGE_CURVE('',#210,#1990,#2460,.T.);
#2480=ORIENTED_EDGE('',*,*,#2470,.T.);
#2490=ORIENTED_EDGE('',*,*,#220,.T.);
#2500=EDGE_LOOP('',(#2490,#2480,#2420,#2410));
#2510=FACE_OUTER_BOUND('',#2500,.T.);
#2520=ADVANCED_FACE('',(#2350,#2510),#2310,.T.);
#2530=CARTESIAN_POINT('',(40.,-10.,0.));
#2540=DIRECTION('',(-0.,-1.,-0.));
#2550=DIRECTION('',(-1.,0.,0.));
#2560=AXIS2_PLACEMENT_3D('',#2530,#2540,#2550);
#2570=PLANE('',#2560);
#2580=ORIENTED_EDGE('',*,*,#300,.T.);
#2590=ORIENTED_EDGE('',*,*,#2470,.F.);
#2600=ORIENTED_EDGE('',*,*,#2000,.F.);
#2610=ORIENTED_EDGE('',*,*,#1310,.F.);
#2620=EDGE_LOOP('',(#2610,#2600,#2590,#2580));
#2630=FACE_OUTER_BOUND('',#2620,.T.);
#2640=ADVANCED_FACE('',(#2630),#2570,.T.);
#2650=CARTESIAN_POINT('',(40.,40.,0.));
#2660=DIRECTION('',(1.,0.,0.));
#2670=DIRECTION('',(0.,-1.,0.));
#2680=AXIS2_PLACEMENT_3D('',#2650,#2660,#2670);
#2690=PLANE('',#2680);
#2700=ORIENTED_EDGE('',*,*,#830,.F.);
#2710=ORIENTED_EDGE('',*,*,#2220,.F.);
#2720=CARTESIAN_POINT('',(40.,40.,0.));
#2730=DIRECTION('',(0.,0.,1.));
#2740=VECTOR('',#2730,1.);
#2750=LINE('',#2720,#2740);
#2760=EDGE_CURVE('',#110,#2150,#2750,.T.);
#2770=ORIENTED_EDGE('',*,*,#2760,.T.);
#2780=ORIENTED_EDGE('',*,*,#520,.T.);
#2790=EDGE_LOOP('',(#2780,#2770,#2710,#2700));
#2800=FACE_OUTER_BOUND('',#2790,.T.);
#2810=ADVANCED_FACE('',(#2800),#2690,.T.);
#2820=CARTESIAN_POINT('',(0.,40.,0.));
#2830=DIRECTION('',(-0.,1.,0.));
#2840=DIRECTION('',(1.,0.,0.));
#2850=AXIS2_PLACEMENT_3D('',#2820,#2830,#2840);
#2860=PLANE('',#2850);
#2870=CARTESIAN_POINT('',(20.,40.,20.));
#2880=DIRECTION('',(0.,1.,0.));
#2890=DIRECTION('',(1.,0.,0.));
#2900=AXIS2_PLACEMENT_3D('',#2870,#2880,#2890);
#2910=CIRCLE('',#2900,4.5);
#2920=CARTESIAN_POINT('',(24.5,40.,20.));
#2930=VERTEX_POINT('',#2920);
#2940=CARTESIAN_POINT('',(15.5,40.,20.));
#2950=VERTEX_POINT('',#2940);
#2960=EDGE_CURVE('',#2930,#2950,#2910,.T.);
#2970=ORIENTED_EDGE('',*,*,#2960,.F.);
#2980=EDGE_CURVE('',#2950,#2930,#2910,.T.);
#2990=ORIENTED_EDGE('',*,*,#2980,.F.);
#3000=EDGE_LOOP('',(#2990,#2970));
#3010=FACE_BOUND('',#3000,.T.);
#3020=ORIENTED_EDGE('',*,*,#2760,.F.);
#3030=ORIENTED_EDGE('',*,*,#2160,.F.);
#3040=ORIENTED_EDGE('',*,*,#2400,.T.);
#3050=ORIENTED_EDGE('',*,*,#140,.T.);
#3060=EDGE_LOOP('',(#3050,#3040,#3030,#3020));
#3070=FACE_OUTER_BOUND('',#3060,.T.);
#3080=ADVANCED_FACE('',(#3010,#3070),#2860,.T.);
#3090=CARTESIAN_POINT('',(20.,-410.,20.));
#3100=DIRECTION('',(0.,1.,0.));
#3110=DIRECTION('',(1.,0.,0.));
#3120=AXIS2_PLACEMENT_3D('',#3090,#3100,#3110);
#3130=CYLINDRICAL_SURFACE('',#3120,4.5);
#3140=CARTESIAN_POINT('',(24.5,-410.,20.));
#3150=DIRECTION('',(0.,1.,0.));
#3160=VECTOR('',#3150,1.);
#3170=LINE('',#3140,#3160);
#3180=EDGE_CURVE('',#680,#2930,#3170,.T.);
#3190=ORIENTED_EDGE('',*,*,#3180,.F.);
#3200=ORIENTED_EDGE('',*,*,#2980,.T.);
#3210=CARTESIAN_POINT('',(15.5,-410.,20.));
#3220=DIRECTION('',(0.,1.,0.));
#3230=VECTOR('',#3220,1.);
#3240=LINE('',#3210,#3230);
#3250=EDGE_CURVE('',#700,#2950,#3240,.T.);
#3260=ORIENTED_EDGE('',*,*,#3250,.T.);
#3270=ORIENTED_EDGE('',*,*,#730,.F.);
#3280=EDGE_LOOP('',(#3270,#3260,#3200,#3190));
#3290=FACE_OUTER_BOUND('',#3280,.T.);
#3300=ADVANCED_FACE('',(#3290),#3130,.F.);
#3310=CARTESIAN_POINT('',(20.,-410.,20.));
#3320=DIRECTION('',(0.,1.,0.));
#3330=DIRECTION('',(1.,0.,0.));
#3340=AXIS2_PLACEMENT_3D('',#3310,#3320,#3330);
#3350=CYLINDRICAL_SURFACE('',#3340,4.5);
#3360=ORIENTED_EDGE('',*,*,#710,.F.);
#3370=ORIENTED_EDGE('',*,*,#3250,.F.);
#3380=ORIENTED_EDGE('',*,*,#2960,.T.);
#3390=ORIENTED_EDGE('',*,*,#3180,.T.);
#3400=EDGE_LOOP('',(#3390,#3380,#3370,#3360));
#3410=FACE_OUTER_BOUND('',#3400,.T.);
#3420=ADVANCED_FACE('',(#3410),#3350,.F.);
#3430=CLOSED_SHELL('',(#2520,#2640,#2810,#3080,#3300,#3420,#2260,#560,
#1020,#1410,#1730,#1860));
#3440=MANIFOLD_SOLID_BREP('',#3430);
#3450=CARTESIAN_POINT('',(0.,0.,0.));
#3460=DIRECTION('',(0.,0.,1.));
#3470=DIRECTION('',(1.,0.,0.));
#3480=AXIS2_PLACEMENT_3D('',#3450,#3460,#3470);
#3490=APPLICATION_CONTEXT(' ');
#3500=APPLICATION_PROTOCOL_DEFINITION(' ','automotive_design',1998,#3490
);
#3510=PRODUCT_CONTEXT('',#3490,'mechanical');
#3520=PRODUCT_DEFINITION_CONTEXT('part definition',#3490,'design');
#3530=PRODUCT('Haltewinkel-MMS-44_50x40x40x5_44.0205.7_PX173455',
'Haltewinkel-MMS-44_50x40x40x5_44.0205.7_PX173455','',(#3510));
#3540=PRODUCT_RELATED_PRODUCT_CATEGORY('part',' ',(#3530));
#3550=PRODUCT_DEFINITION_FORMATION_WITH_SPECIFIED_SOURCE('','',#3530,
.BOUGHT.);
#3560=PRODUCT_DEFINITION('',' ',#3550,#3520);
#3570=PRODUCT_DEFINITION_SHAPE('','',#3560);
#3580=DIMENSIONAL_EXPONENTS(1.,0.,0.,0.,0.,0.,0.);
#3590=DIMENSIONAL_EXPONENTS(0.,0.,0.,0.,0.,0.,0.);
#3600=DIMENSIONAL_EXPONENTS(0.,0.,0.,0.,0.,0.,0.);
#3610=(LENGTH_UNIT() NAMED_UNIT(*) SI_UNIT(.MILLI.,.METRE.));
#3620=(NAMED_UNIT(*) PLANE_ANGLE_UNIT() SI_UNIT($,.RADIAN.));
#3630=(NAMED_UNIT(*) SI_UNIT($,.STERADIAN.) SOLID_ANGLE_UNIT());
#3640=(GEOMETRIC_REPRESENTATION_CONTEXT(3) 
GLOBAL_UNCERTAINTY_ASSIGNED_CONTEXT((#3650)) 
GLOBAL_UNIT_ASSIGNED_CONTEXT((#3610,#3620,#3630)) REPRESENTATION_CONTEXT
('',''));
#3650=UNCERTAINTY_MEASURE_WITH_UNIT(LENGTH_MEASURE(1.E-6),#3610,
'distance_accuracy_value','maximum gap value');
#3660=ADVANCED_BREP_SHAPE_REPRESENTATION('',(#3480,#3440),#3640);
#3670=SHAPE_DEFINITION_REPRESENTATION(#3570,#3660);
#3680=COLOUR_RGB('',0.690196096897125,0.886274576187134,1.);
#3690=FILL_AREA_STYLE_COLOUR('',#3680);
#3700=FILL_AREA_STYLE('',(#3690));
#3710=SURFACE_STYLE_FILL_AREA(#3700);
#3720=SURFACE_SIDE_STYLE('',(#3710));
#3730=SURFACE_STYLE_USAGE(.BOTH.,#3720);
#3740=PRESENTATION_STYLE_ASSIGNMENT((#3730));
#3750=STYLED_ITEM('',(#3740),#3440);
#3760=DRAUGHTING_MODEL('',(#3750),#3640);
#3770=CARTESIAN_POINT('',(40.,-8.88178419700125E-15,35.));
#3780=DIRECTION('',(-1.,2.22044604925024E-16,3.88578058618805E-16));
#3790=DIRECTION('',(2.22044604925024E-16,1.,-5.55111512312559E-17));
#3800=AXIS2_PLACEMENT_3D('',#3770,#3780,#3790);
#3810=ITEM_DEFINED_TRANSFORMATION(
'Haltewinkel-MMS-44_50x40x40x5_44.0205.7_PX173455','',#3480,#3800);
#3820=APPLICATION_CONTEXT(' ');
#3830=APPLICATION_PROTOCOL_DEFINITION(' ','automotive_design',1998,#3820
);
#3840=PRODUCT_CONTEXT('',#3820,'mechanical');
#3850=PRODUCT_DEFINITION_CONTEXT('part definition',#3820,'design');
#3860=PRODUCT('Haltewinkel-MMS-44_50x40x40x5_44.0205.7_PX173455',
'Haltewinkel-MMS-44_50x40x40x5_44.0205.7_PX173455','',(#3840));
#3870=PRODUCT_RELATED_PRODUCT_CATEGORY('part',' ',(#3860));
#3880=PRODUCT_DEFINITION_FORMATION_WITH_SPECIFIED_SOURCE('','',#3860,
.BOUGHT.);
#3890=PRODUCT_DEFINITION('',' ',#3880,#3850);
#3900=PRODUCT_DEFINITION_SHAPE('','',#3890);
#3910=DIMENSIONAL_EXPONENTS(1.,0.,0.,0.,0.,0.,0.);
#3920=DIMENSIONAL_EXPONENTS(0.,0.,0.,0.,0.,0.,0.);
#3930=DIMENSIONAL_EXPONENTS(0.,0.,0.,0.,0.,0.,0.);
#3940=(LENGTH_UNIT() NAMED_UNIT(*) SI_UNIT(.MILLI.,.METRE.));
#3950=(NAMED_UNIT(*) PLANE_ANGLE_UNIT() SI_UNIT($,.RADIAN.));
#3960=(NAMED_UNIT(*) SI_UNIT($,.STERADIAN.) SOLID_ANGLE_UNIT());
#3970=(GEOMETRIC_REPRESENTATION_CONTEXT(3) 
GLOBAL_UNCERTAINTY_ASSIGNED_CONTEXT((#3980)) 
GLOBAL_UNIT_ASSIGNED_CONTEXT((#3940,#3950,#3960)) REPRESENTATION_CONTEXT
('',''));
#3980=UNCERTAINTY_MEASURE_WITH_UNIT(LENGTH_MEASURE(1.E-6),#3940,
'distance_accuracy_value','maximum gap value');
#3990=SHAPE_REPRESENTATION('',(#3480,#3800),#3970);
#4000=SHAPE_DEFINITION_REPRESENTATION(#3900,#3990);
#4010=(REPRESENTATION_RELATIONSHIP('','',#3660,#3990) 
REPRESENTATION_RELATIONSHIP_WITH_TRANSFORMATION(#3810) 
SHAPE_REPRESENTATION_RELATIONSHIP());
#4020=NEXT_ASSEMBLY_USAGE_OCCURRENCE('1','',
'Haltewinkel-MMS-44_50x40x40x5_44.0205.7_PX173455',#3890,#3560,'');
#4030=PRODUCT_DEFINITION_SHAPE('','',#4020);
#4040=CONTEXT_DEPENDENT_SHAPE_REPRESENTATION(#4010,#4030);
ENDSEC;
END-ISO-10303-21;
