ISO-10303-21;
HEADER;
FILE_DESCRIPTION(('Creo Elements/Direct Modeling STEP Export'),'2;1');
FILE_NAME(
'//KR-CAD2/PhoenixTemp/karl.letzgus/Konvertierung/44.0246.23_Flansch-MMS
-44_40x40-R15-M10.stp','2022-03-21T 9:00:05',(''),(''),
'PTC Creo Elements/Direct Modeling STEP processor for AP214 (Solid Model
)',
'PTC Creo Elements/Direct Modeling 19.0C  15-Aug-2015 (C) Parametric Tec
hnology GmbH','');
FILE_SCHEMA(('AUTOMOTIVE_DESIGN { 1 0 10303 214 1 1 1 1 }'));
ENDSEC;
DATA;
#10=CARTESIAN_POINT('',(-5.,5.,-0.04));
#20=DIRECTION('',(0.,0.,1.));
#30=DIRECTION('',(1.,0.,0.));
#40=AXIS2_PLACEMENT_3D('',#10,#20,#30);
#50=CYLINDRICAL_SURFACE('',#40,15.);
#60=CARTESIAN_POINT('',(-20.,5.00000000000001,4.));
#70=DIRECTION('',(0.,0.,-1.));
#80=VECTOR('',#70,1.);
#90=LINE('',#60,#80);
#100=CARTESIAN_POINT('',(-20.,5.00000000000001,4.));
#110=VERTEX_POINT('',#100);
#120=CARTESIAN_POINT('',(-20.,5.,0.));
#130=VERTEX_POINT('',#120);
#140=EDGE_CURVE('',#110,#130,#90,.T.);
#150=ORIENTED_EDGE('',*,*,#140,.F.);
#160=CARTESIAN_POINT('',(-5.,5.,0.));
#170=DIRECTION('',(0.,0.,-1.));
#180=DIRECTION('',(1.,0.,0.));
#190=AXIS2_PLACEMENT_3D('',#160,#170,#180);
#200=CIRCLE('',#190,15.);
#210=CARTESIAN_POINT('',(-5.,20.,0.));
#220=VERTEX_POINT('',#210);
#230=EDGE_CURVE('',#130,#220,#200,.T.);
#240=ORIENTED_EDGE('',*,*,#230,.F.);
#250=CARTESIAN_POINT('',(-5.,20.,4.));
#260=DIRECTION('',(0.,0.,-1.));
#270=VECTOR('',#260,1.);
#280=LINE('',#250,#270);
#290=CARTESIAN_POINT('',(-5.,20.,4.));
#300=VERTEX_POINT('',#290);
#310=EDGE_CURVE('',#300,#220,#280,.T.);
#320=ORIENTED_EDGE('',*,*,#310,.T.);
#330=CARTESIAN_POINT('',(-5.,5.,4.));
#340=DIRECTION('',(0.,0.,1.));
#350=DIRECTION('',(1.,0.,0.));
#360=AXIS2_PLACEMENT_3D('',#330,#340,#350);
#370=CIRCLE('',#360,15.);
#380=EDGE_CURVE('',#300,#110,#370,.T.);
#390=ORIENTED_EDGE('',*,*,#380,.F.);
#400=EDGE_LOOP('',(#390,#320,#240,#150));
#410=FACE_OUTER_BOUND('',#400,.T.);
#420=ADVANCED_FACE('',(#410),#50,.T.);
#430=CARTESIAN_POINT('',(-20.,-20.25,4.04));
#440=DIRECTION('',(1.,0.,0.));
#450=DIRECTION('',(0.,-1.,0.));
#460=AXIS2_PLACEMENT_3D('',#430,#440,#450);
#470=PLANE('',#460);
#480=CARTESIAN_POINT('',(-20.,0.,0.));
#490=DIRECTION('',(0.,1.,0.));
#500=VECTOR('',#490,1.);
#510=LINE('',#480,#500);
#520=CARTESIAN_POINT('',(-20.,-20.,0.));
#530=VERTEX_POINT('',#520);
#540=EDGE_CURVE('',#530,#130,#510,.T.);
#550=ORIENTED_EDGE('',*,*,#540,.F.);
#560=ORIENTED_EDGE('',*,*,#140,.T.);
#570=CARTESIAN_POINT('',(-20.,0.,4.));
#580=DIRECTION('',(0.,-1.,0.));
#590=VECTOR('',#580,1.);
#600=LINE('',#570,#590);
#610=CARTESIAN_POINT('',(-20.,-20.,4.));
#620=VERTEX_POINT('',#610);
#630=EDGE_CURVE('',#110,#620,#600,.T.);
#640=ORIENTED_EDGE('',*,*,#630,.F.);
#650=CARTESIAN_POINT('',(-20.,-20.,0.));
#660=DIRECTION('',(0.,0.,1.));
#670=VECTOR('',#660,1.);
#680=LINE('',#650,#670);
#690=EDGE_CURVE('',#530,#620,#680,.T.);
#700=ORIENTED_EDGE('',*,*,#690,.T.);
#710=EDGE_LOOP('',(#700,#640,#560,#550));
#720=FACE_OUTER_BOUND('',#710,.T.);
#730=ADVANCED_FACE('',(#720),#470,.F.);
#740=CARTESIAN_POINT('',(-20.4,-20.4,0.));
#750=DIRECTION('',(0.,0.,1.));
#760=DIRECTION('',(1.,0.,0.));
#770=AXIS2_PLACEMENT_3D('',#740,#750,#760);
#780=PLANE('',#770);
#790=CARTESIAN_POINT('',(15.,15.,0.));
#800=DIRECTION('',(0.,0.,1.));
#810=DIRECTION('',(1.,0.,0.));
#820=AXIS2_PLACEMENT_3D('',#790,#800,#810);
#830=CIRCLE('',#820,3.5);
#840=CARTESIAN_POINT('',(11.5,15.,0.));
#850=VERTEX_POINT('',#840);
#860=CARTESIAN_POINT('',(18.5,15.,0.));
#870=VERTEX_POINT('',#860);
#880=EDGE_CURVE('',#850,#870,#830,.T.);
#890=ORIENTED_EDGE('',*,*,#880,.T.);
#900=EDGE_CURVE('',#870,#850,#830,.T.);
#910=ORIENTED_EDGE('',*,*,#900,.T.);
#920=EDGE_LOOP('',(#910,#890));
#930=FACE_BOUND('',#920,.T.);
#940=CARTESIAN_POINT('',(8.932764158511E-32,-1.50169595053221E-15,
-2.55004350968591E-15));
#950=DIRECTION('',(-3.5412615254275E-32,1.11621691271721E-16,1.));
#960=DIRECTION('',(0.,-1.,1.11621691271721E-16));
#970=AXIS2_PLACEMENT_3D('',#940,#950,#960);
#980=CIRCLE('',#970,5.);
#990=CARTESIAN_POINT('',(6.12323399573677E-16,5.,-3.15893144975377E-15))
;
#1000=VERTEX_POINT('',#990);
#1010=CARTESIAN_POINT('',(8.932764158511E-32,-5.,-2.04523897817666E-15))
;
#1020=VERTEX_POINT('',#1010);
#1030=EDGE_CURVE('',#1000,#1020,#980,.T.);
#1040=ORIENTED_EDGE('',*,*,#1030,.T.);
#1050=CARTESIAN_POINT('',(5.,4.12588398931262E-16,-2.55004350968591E-15)
);
#1060=VERTEX_POINT('',#1050);
#1070=EDGE_CURVE('',#1060,#1000,#980,.T.);
#1080=ORIENTED_EDGE('',*,*,#1070,.T.);
#1090=EDGE_CURVE('',#1020,#1060,#980,.T.);
#1100=ORIENTED_EDGE('',*,*,#1090,.T.);
#1110=EDGE_LOOP('',(#1100,#1080,#1040));
#1120=FACE_BOUND('',#1110,.T.);
#1130=CARTESIAN_POINT('',(-15.,-15.,0.));
#1140=DIRECTION('',(0.,0.,1.));
#1150=DIRECTION('',(1.,0.,0.));
#1160=AXIS2_PLACEMENT_3D('',#1130,#1140,#1150);
#1170=CIRCLE('',#1160,3.5);
#1180=CARTESIAN_POINT('',(-11.5,-15.,0.));
#1190=VERTEX_POINT('',#1180);
#1200=CARTESIAN_POINT('',(-18.5,-15.,0.));
#1210=VERTEX_POINT('',#1200);
#1220=EDGE_CURVE('',#1190,#1210,#1170,.T.);
#1230=ORIENTED_EDGE('',*,*,#1220,.T.);
#1240=EDGE_CURVE('',#1210,#1190,#1170,.T.);
#1250=ORIENTED_EDGE('',*,*,#1240,.T.);
#1260=EDGE_LOOP('',(#1250,#1230));
#1270=FACE_BOUND('',#1260,.T.);
#1280=CARTESIAN_POINT('',(20.,0.,0.));
#1290=DIRECTION('',(0.,-1.,0.));
#1300=VECTOR('',#1290,1.);
#1310=LINE('',#1280,#1300);
#1320=CARTESIAN_POINT('',(20.,20.,0.));
#1330=VERTEX_POINT('',#1320);
#1340=CARTESIAN_POINT('',(20.,-20.,0.));
#1350=VERTEX_POINT('',#1340);
#1360=EDGE_CURVE('',#1330,#1350,#1310,.T.);
#1370=ORIENTED_EDGE('',*,*,#1360,.T.);
#1380=CARTESIAN_POINT('',(0.,20.,0.));
#1390=DIRECTION('',(1.,0.,0.));
#1400=VECTOR('',#1390,1.);
#1410=LINE('',#1380,#1400);
#1420=EDGE_CURVE('',#220,#1330,#1410,.T.);
#1430=ORIENTED_EDGE('',*,*,#1420,.T.);
#1440=ORIENTED_EDGE('',*,*,#230,.T.);
#1450=ORIENTED_EDGE('',*,*,#540,.T.);
#1460=CARTESIAN_POINT('',(0.,-20.,0.));
#1470=DIRECTION('',(-1.,0.,0.));
#1480=VECTOR('',#1470,1.);
#1490=LINE('',#1460,#1480);
#1500=EDGE_CURVE('',#1350,#530,#1490,.T.);
#1510=ORIENTED_EDGE('',*,*,#1500,.T.);
#1520=EDGE_LOOP('',(#1510,#1450,#1440,#1430,#1370));
#1530=FACE_OUTER_BOUND('',#1520,.T.);
#1540=ADVANCED_FACE('',(#930,#1120,#1270,#1530),#780,.F.);
#1550=CARTESIAN_POINT('',(-5.25,20.,4.04));
#1560=DIRECTION('',(-0.,-1.,-0.));
#1570=DIRECTION('',(-1.,0.,0.));
#1580=AXIS2_PLACEMENT_3D('',#1550,#1560,#1570);
#1590=PLANE('',#1580);
#1600=CARTESIAN_POINT('',(0.,20.,4.));
#1610=DIRECTION('',(-1.,0.,0.));
#1620=VECTOR('',#1610,1.);
#1630=LINE('',#1600,#1620);
#1640=CARTESIAN_POINT('',(20.,20.,4.));
#1650=VERTEX_POINT('',#1640);
#1660=EDGE_CURVE('',#1650,#300,#1630,.T.);
#1670=ORIENTED_EDGE('',*,*,#1660,.F.);
#1680=ORIENTED_EDGE('',*,*,#310,.F.);
#1690=ORIENTED_EDGE('',*,*,#1420,.F.);
#1700=CARTESIAN_POINT('',(20.,20.,0.));
#1710=DIRECTION('',(0.,0.,-1.));
#1720=VECTOR('',#1710,1.);
#1730=LINE('',#1700,#1720);
#1740=EDGE_CURVE('',#1650,#1330,#1730,.T.);
#1750=ORIENTED_EDGE('',*,*,#1740,.T.);
#1760=EDGE_LOOP('',(#1750,#1690,#1680,#1670));
#1770=FACE_OUTER_BOUND('',#1760,.T.);
#1780=ADVANCED_FACE('',(#1770),#1590,.F.);
#1790=CARTESIAN_POINT('',(15.,15.,-0.0400000000000009));
#1800=DIRECTION('',(0.,0.,1.));
#1810=DIRECTION('',(1.,0.,0.));
#1820=AXIS2_PLACEMENT_3D('',#1790,#1800,#1810);
#1830=CYLINDRICAL_SURFACE('',#1820,3.5);
#1840=CARTESIAN_POINT('',(11.5,15.,-0.0400000000000009));
#1850=DIRECTION('',(0.,0.,1.));
#1860=VECTOR('',#1850,1.);
#1870=LINE('',#1840,#1860);
#1880=CARTESIAN_POINT('',(11.5,15.,4.));
#1890=VERTEX_POINT('',#1880);
#1900=EDGE_CURVE('',#850,#1890,#1870,.T.);
#1910=ORIENTED_EDGE('',*,*,#1900,.F.);
#1920=CARTESIAN_POINT('',(15.,15.,4.));
#1930=DIRECTION('',(0.,0.,-1.));
#1940=DIRECTION('',(1.,0.,0.));
#1950=AXIS2_PLACEMENT_3D('',#1920,#1930,#1940);
#1960=CIRCLE('',#1950,3.5);
#1970=CARTESIAN_POINT('',(18.5,15.,4.));
#1980=VERTEX_POINT('',#1970);
#1990=EDGE_CURVE('',#1890,#1980,#1960,.T.);
#2000=ORIENTED_EDGE('',*,*,#1990,.F.);
#2010=CARTESIAN_POINT('',(18.5,15.,-0.0400000000000009));
#2020=DIRECTION('',(0.,0.,1.));
#2030=VECTOR('',#2020,1.);
#2040=LINE('',#2010,#2030);
#2050=EDGE_CURVE('',#870,#1980,#2040,.T.);
#2060=ORIENTED_EDGE('',*,*,#2050,.T.);
#2070=ORIENTED_EDGE('',*,*,#900,.F.);
#2080=EDGE_LOOP('',(#2070,#2060,#2000,#1910));
#2090=FACE_OUTER_BOUND('',#2080,.T.);
#2100=ADVANCED_FACE('',(#2090),#1830,.F.);
#2110=CARTESIAN_POINT('',(-15.,-15.,-0.0400000000000009));
#2120=DIRECTION('',(0.,0.,1.));
#2130=DIRECTION('',(1.,0.,0.));
#2140=AXIS2_PLACEMENT_3D('',#2110,#2120,#2130);
#2150=CYLINDRICAL_SURFACE('',#2140,3.5);
#2160=CARTESIAN_POINT('',(-11.5,-15.,-0.0400000000000009));
#2170=DIRECTION('',(0.,0.,1.));
#2180=VECTOR('',#2170,1.);
#2190=LINE('',#2160,#2180);
#2200=CARTESIAN_POINT('',(-11.5,-15.,4.));
#2210=VERTEX_POINT('',#2200);
#2220=EDGE_CURVE('',#1190,#2210,#2190,.T.);
#2230=ORIENTED_EDGE('',*,*,#2220,.F.);
#2240=CARTESIAN_POINT('',(-15.,-15.,4.));
#2250=DIRECTION('',(0.,0.,-1.));
#2260=DIRECTION('',(1.,0.,0.));
#2270=AXIS2_PLACEMENT_3D('',#2240,#2250,#2260);
#2280=CIRCLE('',#2270,3.5);
#2290=CARTESIAN_POINT('',(-18.5,-15.,4.));
#2300=VERTEX_POINT('',#2290);
#2310=EDGE_CURVE('',#2210,#2300,#2280,.T.);
#2320=ORIENTED_EDGE('',*,*,#2310,.F.);
#2330=CARTESIAN_POINT('',(-18.5,-15.,-0.0400000000000009));
#2340=DIRECTION('',(0.,0.,1.));
#2350=VECTOR('',#2340,1.);
#2360=LINE('',#2330,#2350);
#2370=EDGE_CURVE('',#1210,#2300,#2360,.T.);
#2380=ORIENTED_EDGE('',*,*,#2370,.T.);
#2390=ORIENTED_EDGE('',*,*,#1240,.F.);
#2400=EDGE_LOOP('',(#2390,#2380,#2320,#2230));
#2410=FACE_OUTER_BOUND('',#2400,.T.);
#2420=ADVANCED_FACE('',(#2410),#2150,.F.);
#2430=CARTESIAN_POINT('',(8.96151920209746E-32,-1.50260231866534E-15,
-0.00812000000000079));
#2440=DIRECTION('',(3.5412615254275E-32,-1.11621691271721E-16,-1.));
#2450=DIRECTION('',(0.,-1.,1.11621691271721E-16));
#2460=AXIS2_PLACEMENT_3D('',#2430,#2440,#2450);
#2470=CONICAL_SURFACE('',#2460,5.00812,0.785398163397448);
#2480=CARTESIAN_POINT('',(8.96151920209747E-32,-5.00812,
-0.00812000000000023));
#2490=DIRECTION('',(2.50405003858481E-32,-0.707106781186547,
-0.707106781186548));
#2500=VECTOR('',#2490,7.08255122599195);
#2510=LINE('',#2480,#2500);
#2520=CARTESIAN_POINT('',(6.27681801444034E-32,-4.24999999999999,
0.750000000000006));
#2530=VERTEX_POINT('',#2520);
#2540=EDGE_CURVE('',#2530,#1020,#2510,.T.);
#2550=ORIENTED_EDGE('',*,*,#2540,.F.);
#2560=ORIENTED_EDGE('',*,*,#1090,.F.);
#2570=ORIENTED_EDGE('',*,*,#1070,.F.);
#2580=CARTESIAN_POINT('',(6.13317812774584E-16,5.00812,
-0.00812000000000135));
#2590=DIRECTION('',(8.65956056235493E-17,0.707106781186547,
-0.707106781186548));
#2600=VECTOR('',#2590,7.08255122599195);
#2610=LINE('',#2580,#2600);
#2620=CARTESIAN_POINT('',(5.20474889637625E-16,4.24999999999999,
0.750000000000001));
#2630=VERTEX_POINT('',#2620);
#2640=EDGE_CURVE('',#2630,#1000,#2610,.T.);
#2650=ORIENTED_EDGE('',*,*,#2640,.T.);
#2660=CARTESIAN_POINT('',(3.13840900722017E-32,2.84372383776129E-15,
0.750000000000005));
#2670=DIRECTION('',(-1.77063076271375E-32,5.58108456358603E-17,1.));
#2680=DIRECTION('',(7.3570807166239E-49,-1.,5.58108456358603E-17));
#2690=AXIS2_PLACEMENT_3D('',#2660,#2670,#2680);
#2700=CIRCLE('',#2690,4.25);
#2710=CARTESIAN_POINT('',(4.25,7.105427357601E-15,0.749999999999996));
#2720=VERTEX_POINT('',#2710);
#2730=EDGE_CURVE('',#2720,#2630,#2700,.T.);
#2740=ORIENTED_EDGE('',*,*,#2730,.T.);
#2750=EDGE_CURVE('',#2530,#2720,#2700,.T.);
#2760=ORIENTED_EDGE('',*,*,#2750,.T.);
#2770=EDGE_LOOP('',(#2760,#2740,#2650,#2570,#2560,#2550));
#2780=FACE_OUTER_BOUND('',#2770,.T.);
#2790=ADVANCED_FACE('',(#2780),#2470,.F.);
#2800=CARTESIAN_POINT('',(0.,7.105427357601E-15,14.5669872981078));
#2810=DIRECTION('',(0.,0.,1.));
#2820=DIRECTION('',(1.,0.,0.));
#2830=AXIS2_PLACEMENT_3D('',#2800,#2810,#2820);
#2840=CONICAL_SURFACE('',#2830,4.25,1.0471975511966);
#2850=CARTESIAN_POINT('',(4.25,7.105427357601E-15,14.5669872981078));
#2860=DIRECTION('',(0.866025403784439,0.,0.5));
#2870=VECTOR('',#2860,4.90747728811182);
#2880=LINE('',#2850,#2870);
#2890=CARTESIAN_POINT('',(4.25,7.105427357601E-15,14.5669872981078));
#2900=VERTEX_POINT('',#2890);
#2910=CARTESIAN_POINT('',(5.,7.105427357601E-15,15.));
#2920=VERTEX_POINT('',#2910);
#2930=EDGE_CURVE('',#2900,#2920,#2880,.T.);
#2940=ORIENTED_EDGE('',*,*,#2930,.F.);
#2950=CARTESIAN_POINT('',(0.,7.105427357601E-15,15.));
#2960=DIRECTION('',(0.,0.,1.));
#2970=DIRECTION('',(1.,0.,0.));
#2980=AXIS2_PLACEMENT_3D('',#2950,#2960,#2970);
#2990=CIRCLE('',#2980,5.);
#3000=CARTESIAN_POINT('',(-5.,7.71775075717468E-15,15.));
#3010=VERTEX_POINT('',#3000);
#3020=EDGE_CURVE('',#3010,#2920,#2990,.T.);
#3030=ORIENTED_EDGE('',*,*,#3020,.T.);
#3040=CARTESIAN_POINT('',(-4.25,7.62590224723863E-15,14.5669872981078));
#3050=DIRECTION('',(-0.866025403784439,1.06057523872491E-16,0.5));
#3060=VECTOR('',#3050,4.90747728811182);
#3070=LINE('',#3040,#3060);
#3080=CARTESIAN_POINT('',(-4.25,7.62590224723863E-15,14.5669872981078));
#3090=VERTEX_POINT('',#3080);
#3100=EDGE_CURVE('',#3090,#3010,#3070,.T.);
#3110=ORIENTED_EDGE('',*,*,#3100,.T.);
#3120=CARTESIAN_POINT('',(0.,7.105427357601E-15,14.5669872981078));
#3130=DIRECTION('',(0.,0.,1.));
#3140=DIRECTION('',(1.,0.,0.));
#3150=AXIS2_PLACEMENT_3D('',#3120,#3130,#3140);
#3160=CIRCLE('',#3150,4.25);
#3170=EDGE_CURVE('',#3090,#2900,#3160,.T.);
#3180=ORIENTED_EDGE('',*,*,#3170,.F.);
#3190=EDGE_LOOP('',(#3180,#3110,#3030,#2940));
#3200=FACE_OUTER_BOUND('',#3190,.T.);
#3210=ADVANCED_FACE('',(#3200),#2840,.F.);
#3220=CARTESIAN_POINT('',(20.,-20.4,-0.04));
#3230=DIRECTION('',(-1.,0.,0.));
#3240=DIRECTION('',(0.,1.,0.));
#3250=AXIS2_PLACEMENT_3D('',#3220,#3230,#3240);
#3260=PLANE('',#3250);
#3270=CARTESIAN_POINT('',(20.,0.,4.));
#3280=DIRECTION('',(0.,1.,0.));
#3290=VECTOR('',#3280,1.);
#3300=LINE('',#3270,#3290);
#3310=CARTESIAN_POINT('',(20.,-20.,4.));
#3320=VERTEX_POINT('',#3310);
#3330=EDGE_CURVE('',#3320,#1650,#3300,.T.);
#3340=ORIENTED_EDGE('',*,*,#3330,.F.);
#3350=ORIENTED_EDGE('',*,*,#1740,.F.);
#3360=ORIENTED_EDGE('',*,*,#1360,.F.);
#3370=CARTESIAN_POINT('',(20.,-20.,0.));
#3380=DIRECTION('',(0.,0.,1.));
#3390=VECTOR('',#3380,1.);
#3400=LINE('',#3370,#3390);
#3410=EDGE_CURVE('',#1350,#3320,#3400,.T.);
#3420=ORIENTED_EDGE('',*,*,#3410,.F.);
#3430=EDGE_LOOP('',(#3420,#3360,#3350,#3340));
#3440=FACE_OUTER_BOUND('',#3430,.T.);
#3450=ADVANCED_FACE('',(#3440),#3260,.F.);
#3460=CARTESIAN_POINT('',(5.77789948289006E-31,-1.2657229938885E-15,14.1
));
#3470=DIRECTION('',(0.,0.,-1.));
#3480=DIRECTION('',(-1.,0.,0.));
#3490=AXIS2_PLACEMENT_3D('',#3460,#3470,#3480);
#3500=CYLINDRICAL_SURFACE('',#3490,11.);
#3510=CARTESIAN_POINT('',(11.,8.13884851735881E-17,14.1));
#3520=DIRECTION('',(0.,0.,-1.));
#3530=VECTOR('',#3520,1.);
#3540=LINE('',#3510,#3530);
#3550=CARTESIAN_POINT('',(11.,8.13884851735881E-17,14.));
#3560=VERTEX_POINT('',#3550);
#3570=CARTESIAN_POINT('',(11.,8.13884851735881E-17,4.));
#3580=VERTEX_POINT('',#3570);
#3590=EDGE_CURVE('',#3560,#3580,#3540,.T.);
#3600=ORIENTED_EDGE('',*,*,#3590,.T.);
#3610=CARTESIAN_POINT('',(-1.06844635881308E-32,6.98549363312485E-16,14.
));
#3620=DIRECTION('',(0.,0.,-1.));
#3630=DIRECTION('',(-1.,0.,0.));
#3640=AXIS2_PLACEMENT_3D('',#3610,#3620,#3630);
#3650=CIRCLE('',#3640,11.);
#3660=CARTESIAN_POINT('',(-11.,-1.2657229938885E-15,14.));
#3670=VERTEX_POINT('',#3660);
#3680=EDGE_CURVE('',#3670,#3560,#3650,.T.);
#3690=ORIENTED_EDGE('',*,*,#3680,.T.);
#3700=CARTESIAN_POINT('',(-11.,-1.2657229938885E-15,14.1));
#3710=DIRECTION('',(0.,0.,-1.));
#3720=VECTOR('',#3710,1.);
#3730=LINE('',#3700,#3720);
#3740=CARTESIAN_POINT('',(-11.,-1.2657229938885E-15,4.));
#3750=VERTEX_POINT('',#3740);
#3760=EDGE_CURVE('',#3670,#3750,#3730,.T.);
#3770=ORIENTED_EDGE('',*,*,#3760,.F.);
#3780=CARTESIAN_POINT('',(5.77789948289006E-31,-1.2657229938885E-15,4.))
;
#3790=DIRECTION('',(0.,0.,-1.));
#3800=DIRECTION('',(-1.,0.,0.));
#3810=AXIS2_PLACEMENT_3D('',#3780,#3790,#3800);
#3820=CIRCLE('',#3810,11.);
#3830=EDGE_CURVE('',#3750,#3580,#3820,.T.);
#3840=ORIENTED_EDGE('',*,*,#3830,.F.);
#3850=EDGE_LOOP('',(#3840,#3770,#3690,#3600));
#3860=FACE_OUTER_BOUND('',#3850,.T.);
#3870=ADVANCED_FACE('',(#3860),#3500,.T.);
#3880=CARTESIAN_POINT('',(-10.2,-10.2,15.));
#3890=DIRECTION('',(0.,0.,1.));
#3900=DIRECTION('',(1.,0.,0.));
#3910=AXIS2_PLACEMENT_3D('',#3880,#3890,#3900);
#3920=PLANE('',#3910);
#3930=EDGE_CURVE('',#2920,#3010,#2990,.T.);
#3940=ORIENTED_EDGE('',*,*,#3930,.F.);
#3950=ORIENTED_EDGE('',*,*,#3020,.F.);
#3960=EDGE_LOOP('',(#3950,#3940));
#3970=FACE_BOUND('',#3960,.T.);
#3980=CARTESIAN_POINT('',(-5.99158875465268E-31,2.66282172051347E-15,15.
));
#3990=DIRECTION('',(0.,0.,-1.));
#4000=DIRECTION('',(-1.,0.,0.));
#4010=AXIS2_PLACEMENT_3D('',#3980,#3990,#4000);
#4020=CIRCLE('',#4010,9.99999999999999);
#4030=CARTESIAN_POINT('',(-9.99999999999999,2.66282172051347E-15,15.));
#4040=VERTEX_POINT('',#4030);
#4050=CARTESIAN_POINT('',(9.99999999999999,3.88746851966082E-15,15.));
#4060=VERTEX_POINT('',#4050);
#4070=EDGE_CURVE('',#4040,#4060,#4020,.T.);
#4080=ORIENTED_EDGE('',*,*,#4070,.F.);
#4090=EDGE_CURVE('',#4060,#4040,#4020,.T.);
#4100=ORIENTED_EDGE('',*,*,#4090,.F.);
#4110=EDGE_LOOP('',(#4100,#4080));
#4120=FACE_OUTER_BOUND('',#4110,.T.);
#4130=ADVANCED_FACE('',(#3970,#4120),#3920,.T.);
#4140=CARTESIAN_POINT('',(-5.99158875465268E-31,2.66282172051347E-15,
13.99));
#4150=DIRECTION('',(0.,0.,-1.));
#4160=DIRECTION('',(-1.,0.,0.));
#4170=AXIS2_PLACEMENT_3D('',#4140,#4150,#4160);
#4180=CONICAL_SURFACE('',#4170,11.01,0.785398163397448);
#4190=CARTESIAN_POINT('',(-11.01,2.66282172051347E-15,13.99));
#4200=DIRECTION('',(-0.707106781186547,0.,-0.707106781186548));
#4210=VECTOR('',#4200,15.5704913217278);
#4220=LINE('',#4190,#4210);
#4230=EDGE_CURVE('',#4040,#3670,#4220,.T.);
#4240=ORIENTED_EDGE('',*,*,#4230,.T.);
#4250=ORIENTED_EDGE('',*,*,#4090,.T.);
#4260=CARTESIAN_POINT('',(11.01,4.01115784637471E-15,13.99));
#4270=DIRECTION('',(0.707106781186547,8.65956056235493E-17,
-0.707106781186548));
#4280=VECTOR('',#4270,15.5704913217278);
#4290=LINE('',#4260,#4280);
#4300=EDGE_CURVE('',#4060,#3560,#4290,.T.);
#4310=ORIENTED_EDGE('',*,*,#4300,.F.);
#4320=EDGE_CURVE('',#3560,#3670,#3650,.T.);
#4330=ORIENTED_EDGE('',*,*,#4320,.F.);
#4340=EDGE_LOOP('',(#4330,#4310,#4250,#4240));
#4350=FACE_OUTER_BOUND('',#4340,.T.);
#4360=ADVANCED_FACE('',(#4350),#4180,.T.);
#4370=CARTESIAN_POINT('',(-22.5,-20.5,4.));
#4380=DIRECTION('',(0.,0.,1.));
#4390=DIRECTION('',(1.,0.,0.));
#4400=AXIS2_PLACEMENT_3D('',#4370,#4380,#4390);
#4410=PLANE('',#4400);
#4420=ORIENTED_EDGE('',*,*,#1990,.T.);
#4430=EDGE_CURVE('',#1980,#1890,#1960,.T.);
#4440=ORIENTED_EDGE('',*,*,#4430,.T.);
#4450=EDGE_LOOP('',(#4440,#4420));
#4460=FACE_BOUND('',#4450,.T.);
#4470=ORIENTED_EDGE('',*,*,#2310,.T.);
#4480=EDGE_CURVE('',#2300,#2210,#2280,.T.);
#4490=ORIENTED_EDGE('',*,*,#4480,.T.);
#4500=EDGE_LOOP('',(#4490,#4470));
#4510=FACE_BOUND('',#4500,.T.);
#4520=EDGE_CURVE('',#3580,#3750,#3820,.T.);
#4530=ORIENTED_EDGE('',*,*,#4520,.T.);
#4540=ORIENTED_EDGE('',*,*,#3830,.T.);
#4550=EDGE_LOOP('',(#4540,#4530));
#4560=FACE_BOUND('',#4550,.T.);
#4570=CARTESIAN_POINT('',(0.,-20.,4.));
#4580=DIRECTION('',(1.,0.,0.));
#4590=VECTOR('',#4580,1.);
#4600=LINE('',#4570,#4590);
#4610=EDGE_CURVE('',#620,#3320,#4600,.T.);
#4620=ORIENTED_EDGE('',*,*,#4610,.T.);
#4630=ORIENTED_EDGE('',*,*,#630,.T.);
#4640=ORIENTED_EDGE('',*,*,#380,.T.);
#4650=ORIENTED_EDGE('',*,*,#1660,.T.);
#4660=ORIENTED_EDGE('',*,*,#3330,.T.);
#4670=EDGE_LOOP('',(#4660,#4650,#4640,#4630,#4620));
#4680=FACE_OUTER_BOUND('',#4670,.T.);
#4690=ADVANCED_FACE('',(#4460,#4510,#4560,#4680),#4410,.T.);
#4700=CARTESIAN_POINT('',(-20.4,-20.,-0.04));
#4710=DIRECTION('',(-0.,1.,0.));
#4720=DIRECTION('',(1.,0.,0.));
#4730=AXIS2_PLACEMENT_3D('',#4700,#4710,#4720);
#4740=PLANE('',#4730);
#4750=ORIENTED_EDGE('',*,*,#3410,.T.);
#4760=ORIENTED_EDGE('',*,*,#1500,.F.);
#4770=ORIENTED_EDGE('',*,*,#690,.F.);
#4780=ORIENTED_EDGE('',*,*,#4610,.F.);
#4790=EDGE_LOOP('',(#4780,#4770,#4760,#4750));
#4800=FACE_OUTER_BOUND('',#4790,.T.);
#4810=ADVANCED_FACE('',(#4800),#4740,.F.);
#4820=CARTESIAN_POINT('',(0.,7.105427357601E-15,15.));
#4830=DIRECTION('',(0.,0.,1.));
#4840=DIRECTION('',(1.,0.,0.));
#4850=AXIS2_PLACEMENT_3D('',#4820,#4830,#4840);
#4860=CYLINDRICAL_SURFACE('',#4850,4.25);
#4870=CARTESIAN_POINT('',(-4.25,7.62590224723863E-15,15.));
#4880=DIRECTION('',(0.,0.,1.));
#4890=VECTOR('',#4880,1.);
#4900=LINE('',#4870,#4890);
#4910=CARTESIAN_POINT('',(-4.25,7.62590224723863E-15,0.750000000000005))
;
#4920=VERTEX_POINT('',#4910);
#4930=EDGE_CURVE('',#4920,#3090,#4900,.T.);
#4940=ORIENTED_EDGE('',*,*,#4930,.T.);
#4950=EDGE_CURVE('',#4920,#2530,#2700,.T.);
#4960=ORIENTED_EDGE('',*,*,#4950,.F.);
#4970=ORIENTED_EDGE('',*,*,#2750,.F.);
#4980=CARTESIAN_POINT('',(4.25,7.105427357601E-15,15.));
#4990=DIRECTION('',(0.,0.,1.));
#5000=VECTOR('',#4990,1.);
#5010=LINE('',#4980,#5000);
#5020=EDGE_CURVE('',#2720,#2900,#5010,.T.);
#5030=ORIENTED_EDGE('',*,*,#5020,.F.);
#5040=ORIENTED_EDGE('',*,*,#3170,.T.);
#5050=EDGE_LOOP('',(#5040,#5030,#4970,#4960,#4940));
#5060=FACE_OUTER_BOUND('',#5050,.T.);
#5070=ADVANCED_FACE('M10x1.5_1192542',(#5060),#4860,.F.);
#5080=COLOUR_RGB('',1.,0.,0.);
#5090=FILL_AREA_STYLE_COLOUR('',#5080);
#5100=FILL_AREA_STYLE('',(#5090));
#5110=SURFACE_STYLE_FILL_AREA(#5100);
#5120=SURFACE_SIDE_STYLE('',(#5110));
#5130=SURFACE_STYLE_USAGE(.BOTH.,#5120);
#5140=PRESENTATION_STYLE_ASSIGNMENT((#5130));
#5150=CARTESIAN_POINT('',(5.77789948289006E-31,-1.2657229938885E-15,14.1
));
#5160=DIRECTION('',(0.,0.,-1.));
#5170=DIRECTION('',(-1.,0.,0.));
#5180=AXIS2_PLACEMENT_3D('',#5150,#5160,#5170);
#5190=CYLINDRICAL_SURFACE('',#5180,11.);
#5200=ORIENTED_EDGE('',*,*,#3590,.F.);
#5210=ORIENTED_EDGE('',*,*,#4520,.F.);
#5220=ORIENTED_EDGE('',*,*,#3760,.T.);
#5230=ORIENTED_EDGE('',*,*,#4320,.T.);
#5240=EDGE_LOOP('',(#5230,#5220,#5210,#5200));
#5250=FACE_OUTER_BOUND('',#5240,.T.);
#5260=ADVANCED_FACE('',(#5250),#5190,.T.);
#5270=CARTESIAN_POINT('',(0.,7.105427357601E-15,15.));
#5280=DIRECTION('',(0.,0.,1.));
#5290=DIRECTION('',(1.,0.,0.));
#5300=AXIS2_PLACEMENT_3D('',#5270,#5280,#5290);
#5310=CYLINDRICAL_SURFACE('',#5300,4.25);
#5320=ORIENTED_EDGE('',*,*,#2730,.F.);
#5330=EDGE_CURVE('',#2630,#4920,#2700,.T.);
#5340=ORIENTED_EDGE('',*,*,#5330,.F.);
#5350=ORIENTED_EDGE('',*,*,#4930,.F.);
#5360=EDGE_CURVE('',#2900,#3090,#3160,.T.);
#5370=ORIENTED_EDGE('',*,*,#5360,.T.);
#5380=ORIENTED_EDGE('',*,*,#5020,.T.);
#5390=EDGE_LOOP('',(#5380,#5370,#5350,#5340,#5320));
#5400=FACE_OUTER_BOUND('',#5390,.T.);
#5410=ADVANCED_FACE('',(#5400),#5310,.F.);
#5420=COLOUR_RGB('',1.,0.,0.);
#5430=FILL_AREA_STYLE_COLOUR('',#5420);
#5440=FILL_AREA_STYLE('',(#5430));
#5450=SURFACE_STYLE_FILL_AREA(#5440);
#5460=SURFACE_SIDE_STYLE('',(#5450));
#5470=SURFACE_STYLE_USAGE(.BOTH.,#5460);
#5480=PRESENTATION_STYLE_ASSIGNMENT((#5470));
#5490=CARTESIAN_POINT('',(0.,7.105427357601E-15,14.5669872981078));
#5500=DIRECTION('',(0.,0.,1.));
#5510=DIRECTION('',(1.,0.,0.));
#5520=AXIS2_PLACEMENT_3D('',#5490,#5500,#5510);
#5530=CONICAL_SURFACE('',#5520,4.25,1.0471975511966);
#5540=ORIENTED_EDGE('',*,*,#5360,.F.);
#5550=ORIENTED_EDGE('',*,*,#3100,.F.);
#5560=ORIENTED_EDGE('',*,*,#3930,.T.);
#5570=ORIENTED_EDGE('',*,*,#2930,.T.);
#5580=EDGE_LOOP('',(#5570,#5560,#5550,#5540));
#5590=FACE_OUTER_BOUND('',#5580,.T.);
#5600=ADVANCED_FACE('',(#5590),#5530,.F.);
#5610=CARTESIAN_POINT('',(15.,15.,-0.0400000000000009));
#5620=DIRECTION('',(0.,0.,1.));
#5630=DIRECTION('',(1.,0.,0.));
#5640=AXIS2_PLACEMENT_3D('',#5610,#5620,#5630);
#5650=CYLINDRICAL_SURFACE('',#5640,3.5);
#5660=ORIENTED_EDGE('',*,*,#1900,.T.);
#5670=ORIENTED_EDGE('',*,*,#880,.F.);
#5680=ORIENTED_EDGE('',*,*,#2050,.F.);
#5690=ORIENTED_EDGE('',*,*,#4430,.F.);
#5700=EDGE_LOOP('',(#5690,#5680,#5670,#5660));
#5710=FACE_OUTER_BOUND('',#5700,.T.);
#5720=ADVANCED_FACE('',(#5710),#5650,.F.);
#5730=CARTESIAN_POINT('',(-15.,-15.,-0.0400000000000009));
#5740=DIRECTION('',(0.,0.,1.));
#5750=DIRECTION('',(1.,0.,0.));
#5760=AXIS2_PLACEMENT_3D('',#5730,#5740,#5750);
#5770=CYLINDRICAL_SURFACE('',#5760,3.5);
#5780=ORIENTED_EDGE('',*,*,#2220,.T.);
#5790=ORIENTED_EDGE('',*,*,#1220,.F.);
#5800=ORIENTED_EDGE('',*,*,#2370,.F.);
#5810=ORIENTED_EDGE('',*,*,#4480,.F.);
#5820=EDGE_LOOP('',(#5810,#5800,#5790,#5780));
#5830=FACE_OUTER_BOUND('',#5820,.T.);
#5840=ADVANCED_FACE('',(#5830),#5770,.F.);
#5850=CARTESIAN_POINT('',(8.96151920209746E-32,-1.50260231866534E-15,
-0.00812000000000079));
#5860=DIRECTION('',(3.5412615254275E-32,-1.11621691271721E-16,-1.));
#5870=DIRECTION('',(0.,-1.,1.11621691271721E-16));
#5880=AXIS2_PLACEMENT_3D('',#5850,#5860,#5870);
#5890=CONICAL_SURFACE('',#5880,5.00812,0.785398163397448);
#5900=ORIENTED_EDGE('',*,*,#1030,.F.);
#5910=ORIENTED_EDGE('',*,*,#2540,.T.);
#5920=ORIENTED_EDGE('',*,*,#4950,.T.);
#5930=ORIENTED_EDGE('',*,*,#5330,.T.);
#5940=ORIENTED_EDGE('',*,*,#2640,.F.);
#5950=EDGE_LOOP('',(#5940,#5930,#5920,#5910,#5900));
#5960=FACE_OUTER_BOUND('',#5950,.T.);
#5970=ADVANCED_FACE('',(#5960),#5890,.F.);
#5980=CARTESIAN_POINT('',(-5.99158875465268E-31,2.66282172051347E-15,
13.99));
#5990=DIRECTION('',(0.,0.,-1.));
#6000=DIRECTION('',(-1.,0.,0.));
#6010=AXIS2_PLACEMENT_3D('',#5980,#5990,#6000);
#6020=CONICAL_SURFACE('',#6010,11.01,0.785398163397448);
#6030=ORIENTED_EDGE('',*,*,#3680,.F.);
#6040=ORIENTED_EDGE('',*,*,#4300,.T.);
#6050=ORIENTED_EDGE('',*,*,#4070,.T.);
#6060=ORIENTED_EDGE('',*,*,#4230,.F.);
#6070=EDGE_LOOP('',(#6060,#6050,#6040,#6030));
#6080=FACE_OUTER_BOUND('',#6070,.T.);
#6090=ADVANCED_FACE('',(#6080),#6020,.T.);
#6100=CLOSED_SHELL('',(#420,#730,#1540,#1780,#2100,#2420,#2790,#3210,
#3450,#3870,#4130,#4360,#4690,#4810,#5070,#5260,#5410,#5600,#5720,#5840,
#5970,#6090));
#6110=MANIFOLD_SOLID_BREP('',#6100);
#6120=CARTESIAN_POINT('',(0.,0.,0.));
#6130=DIRECTION('',(0.,0.,1.));
#6140=DIRECTION('',(1.,0.,0.));
#6150=AXIS2_PLACEMENT_3D('',#6120,#6130,#6140);
#6160=APPLICATION_CONTEXT(' ');
#6170=APPLICATION_PROTOCOL_DEFINITION(' ','automotive_design',1998,#6160
);
#6180=PRODUCT_CONTEXT('',#6160,'mechanical');
#6190=PRODUCT_DEFINITION_CONTEXT('part definition',#6160,'design');
#6200=PRODUCT('Flansch-MMS-44_40x40-R15-M10_44.0246.23_PX173796',
'Flansch-MMS-44_40x40-R15-M10_44.0246.23_PX173796','',(#6180));
#6210=PRODUCT_RELATED_PRODUCT_CATEGORY('part',' ',(#6200));
#6220=PRODUCT_DEFINITION_FORMATION_WITH_SPECIFIED_SOURCE('','',#6200,
.BOUGHT.);
#6230=PRODUCT_DEFINITION('',' ',#6220,#6190);
#6240=PRODUCT_DEFINITION_SHAPE('','',#6230);
#6250=DIMENSIONAL_EXPONENTS(1.,0.,0.,0.,0.,0.,0.);
#6260=DIMENSIONAL_EXPONENTS(0.,0.,0.,0.,0.,0.,0.);
#6270=DIMENSIONAL_EXPONENTS(0.,0.,0.,0.,0.,0.,0.);
#6280=(LENGTH_UNIT() NAMED_UNIT(*) SI_UNIT(.MILLI.,.METRE.));
#6290=(NAMED_UNIT(*) PLANE_ANGLE_UNIT() SI_UNIT($,.RADIAN.));
#6300=(NAMED_UNIT(*) SI_UNIT($,.STERADIAN.) SOLID_ANGLE_UNIT());
#6310=(GEOMETRIC_REPRESENTATION_CONTEXT(3) 
GLOBAL_UNCERTAINTY_ASSIGNED_CONTEXT((#6320)) 
GLOBAL_UNIT_ASSIGNED_CONTEXT((#6280,#6290,#6300)) REPRESENTATION_CONTEXT
('',''));
#6320=UNCERTAINTY_MEASURE_WITH_UNIT(LENGTH_MEASURE(1.E-6),#6280,
'distance_accuracy_value','maximum gap value');
#6330=ADVANCED_BREP_SHAPE_REPRESENTATION('',(#6150,#6110),#6310);
#6340=SHAPE_DEFINITION_REPRESENTATION(#6240,#6330);
#6350=COLOUR_RGB('',0.690196096897125,0.886274576187134,1.);
#6360=FILL_AREA_STYLE_COLOUR('',#6350);
#6370=FILL_AREA_STYLE('',(#6360));
#6380=SURFACE_STYLE_FILL_AREA(#6370);
#6390=SURFACE_SIDE_STYLE('',(#6380));
#6400=SURFACE_STYLE_USAGE(.BOTH.,#6390);
#6410=PRESENTATION_STYLE_ASSIGNMENT((#6400));
#6420=STYLED_ITEM('',(#6410),#6110);
#6430=OVER_RIDING_STYLED_ITEM('',(#5140),#5070,#6420);
#6440=OVER_RIDING_STYLED_ITEM('',(#5480),#5410,#6420);
#6450=DRAUGHTING_MODEL('',(#6420,#6430,#6440),#6310);
#6460=CARTESIAN_POINT('',(60.,60.,0.));
#6470=DIRECTION('',(0.,0.,1.));
#6480=DIRECTION('',(1.,0.,0.));
#6490=AXIS2_PLACEMENT_3D('',#6460,#6470,#6480);
#6500=ITEM_DEFINED_TRANSFORMATION(
'Flansch-MMS-44_40x40-R15-M10_44.0246.23_PX173796','',#6150,#6490);
#6510=APPLICATION_CONTEXT(' ');
#6520=APPLICATION_PROTOCOL_DEFINITION(' ','automotive_design',1998,#6510
);
#6530=PRODUCT_CONTEXT('',#6510,'mechanical');
#6540=PRODUCT_DEFINITION_CONTEXT('part definition',#6510,'design');
#6550=PRODUCT('Flansch-MMS-44_40x40-R15-M10_44.0246.23_PX173796',
'Flansch-MMS-44_40x40-R15-M10_44.0246.23_PX173796','',(#6530));
#6560=PRODUCT_RELATED_PRODUCT_CATEGORY('part',' ',(#6550));
#6570=PRODUCT_DEFINITION_FORMATION_WITH_SPECIFIED_SOURCE('','',#6550,
.BOUGHT.);
#6580=PRODUCT_DEFINITION('',' ',#6570,#6540);
#6590=PRODUCT_DEFINITION_SHAPE('','',#6580);
#6600=DIMENSIONAL_EXPONENTS(1.,0.,0.,0.,0.,0.,0.);
#6610=DIMENSIONAL_EXPONENTS(0.,0.,0.,0.,0.,0.,0.);
#6620=DIMENSIONAL_EXPONENTS(0.,0.,0.,0.,0.,0.,0.);
#6630=(LENGTH_UNIT() NAMED_UNIT(*) SI_UNIT(.MILLI.,.METRE.));
#6640=(NAMED_UNIT(*) PLANE_ANGLE_UNIT() SI_UNIT($,.RADIAN.));
#6650=(NAMED_UNIT(*) SI_UNIT($,.STERADIAN.) SOLID_ANGLE_UNIT());
#6660=(GEOMETRIC_REPRESENTATION_CONTEXT(3) 
GLOBAL_UNCERTAINTY_ASSIGNED_CONTEXT((#6670)) 
GLOBAL_UNIT_ASSIGNED_CONTEXT((#6630,#6640,#6650)) REPRESENTATION_CONTEXT
('',''));
#6670=UNCERTAINTY_MEASURE_WITH_UNIT(LENGTH_MEASURE(1.E-6),#6630,
'distance_accuracy_value','maximum gap value');
#6680=SHAPE_REPRESENTATION('',(#6150,#6490),#6660);
#6690=SHAPE_DEFINITION_REPRESENTATION(#6590,#6680);
#6700=(REPRESENTATION_RELATIONSHIP('','',#6330,#6680) 
REPRESENTATION_RELATIONSHIP_WITH_TRANSFORMATION(#6500) 
SHAPE_REPRESENTATION_RELATIONSHIP());
#6710=NEXT_ASSEMBLY_USAGE_OCCURRENCE('1','',
'Flansch-MMS-44_40x40-R15-M10_44.0246.23_PX173796',#6580,#6230,'');
#6720=PRODUCT_DEFINITION_SHAPE('','',#6710);
#6730=CONTEXT_DEPENDENT_SHAPE_REPRESENTATION(#6700,#6720);
ENDSEC;
END-ISO-10303-21;
