ISO-10303-21;
HEADER;
FILE_DESCRIPTION(('Creo Elements/Direct Modeling STEP Export'),'2;1');
FILE_NAME(
'//KR-CAD2/PhoenixTemp/karl.letzgus/Konvertierung/44.0246.26_Flansch-MMS
-44_40x40-R15-M16.stp','2022-03-21T 9:00:06',(''),(''),
'PTC Creo Elements/Direct Modeling STEP processor for AP214 (Solid Model
)',
'PTC Creo Elements/Direct Modeling 19.0C  15-Aug-2015 (C) Parametric Tec
hnology GmbH','');
FILE_SCHEMA(('AUTOMOTIVE_DESIGN { 1 0 10303 214 1 1 1 1 }'));
ENDSEC;
DATA;
#10=CARTESIAN_POINT('',(-5.,5.,-0.04));
#20=DIRECTION('',(0.,0.,1.));
#30=DIRECTION('',(1.,0.,0.));
#40=AXIS2_PLACEMENT_3D('',#10,#20,#30);
#50=CYLINDRICAL_SURFACE('',#40,15.);
#60=CARTESIAN_POINT('',(-20.,5.00000000000001,4.));
#70=DIRECTION('',(0.,0.,-1.));
#80=VECTOR('',#70,1.);
#90=LINE('',#60,#80);
#100=CARTESIAN_POINT('',(-20.,5.00000000000001,4.));
#110=VERTEX_POINT('',#100);
#120=CARTESIAN_POINT('',(-20.,5.,0.));
#130=VERTEX_POINT('',#120);
#140=EDGE_CURVE('',#110,#130,#90,.T.);
#150=ORIENTED_EDGE('',*,*,#140,.F.);
#160=CARTESIAN_POINT('',(-5.,5.,0.));
#170=DIRECTION('',(0.,0.,-1.));
#180=DIRECTION('',(1.,0.,0.));
#190=AXIS2_PLACEMENT_3D('',#160,#170,#180);
#200=CIRCLE('',#190,15.);
#210=CARTESIAN_POINT('',(-5.,20.,0.));
#220=VERTEX_POINT('',#210);
#230=EDGE_CURVE('',#130,#220,#200,.T.);
#240=ORIENTED_EDGE('',*,*,#230,.F.);
#250=CARTESIAN_POINT('',(-5.,20.,4.));
#260=DIRECTION('',(0.,0.,-1.));
#270=VECTOR('',#260,1.);
#280=LINE('',#250,#270);
#290=CARTESIAN_POINT('',(-5.,20.,4.));
#300=VERTEX_POINT('',#290);
#310=EDGE_CURVE('',#300,#220,#280,.T.);
#320=ORIENTED_EDGE('',*,*,#310,.T.);
#330=CARTESIAN_POINT('',(-5.,5.,4.));
#340=DIRECTION('',(0.,0.,1.));
#350=DIRECTION('',(1.,0.,0.));
#360=AXIS2_PLACEMENT_3D('',#330,#340,#350);
#370=CIRCLE('',#360,15.);
#380=EDGE_CURVE('',#300,#110,#370,.T.);
#390=ORIENTED_EDGE('',*,*,#380,.F.);
#400=EDGE_LOOP('',(#390,#320,#240,#150));
#410=FACE_OUTER_BOUND('',#400,.T.);
#420=ADVANCED_FACE('',(#410),#50,.T.);
#430=CARTESIAN_POINT('',(-20.,-20.25,4.04));
#440=DIRECTION('',(1.,0.,0.));
#450=DIRECTION('',(0.,-1.,0.));
#460=AXIS2_PLACEMENT_3D('',#430,#440,#450);
#470=PLANE('',#460);
#480=CARTESIAN_POINT('',(-20.,0.,0.));
#490=DIRECTION('',(0.,1.,0.));
#500=VECTOR('',#490,1.);
#510=LINE('',#480,#500);
#520=CARTESIAN_POINT('',(-20.,-20.,0.));
#530=VERTEX_POINT('',#520);
#540=EDGE_CURVE('',#530,#130,#510,.T.);
#550=ORIENTED_EDGE('',*,*,#540,.F.);
#560=ORIENTED_EDGE('',*,*,#140,.T.);
#570=CARTESIAN_POINT('',(-20.,0.,4.));
#580=DIRECTION('',(0.,-1.,0.));
#590=VECTOR('',#580,1.);
#600=LINE('',#570,#590);
#610=CARTESIAN_POINT('',(-20.,-20.,4.));
#620=VERTEX_POINT('',#610);
#630=EDGE_CURVE('',#110,#620,#600,.T.);
#640=ORIENTED_EDGE('',*,*,#630,.F.);
#650=CARTESIAN_POINT('',(-20.,-20.,0.));
#660=DIRECTION('',(0.,0.,1.));
#670=VECTOR('',#660,1.);
#680=LINE('',#650,#670);
#690=EDGE_CURVE('',#530,#620,#680,.T.);
#700=ORIENTED_EDGE('',*,*,#690,.T.);
#710=EDGE_LOOP('',(#700,#640,#560,#550));
#720=FACE_OUTER_BOUND('',#710,.T.);
#730=ADVANCED_FACE('',(#720),#470,.F.);
#740=CARTESIAN_POINT('',(-20.4,-20.4,0.));
#750=DIRECTION('',(0.,0.,1.));
#760=DIRECTION('',(1.,0.,0.));
#770=AXIS2_PLACEMENT_3D('',#740,#750,#760);
#780=PLANE('',#770);
#790=CARTESIAN_POINT('',(0.,7.105427357601E-15,0.));
#800=DIRECTION('',(0.,0.,1.));
#810=DIRECTION('',(1.,0.,0.));
#820=AXIS2_PLACEMENT_3D('',#790,#800,#810);
#830=CIRCLE('',#820,7.99999953374989);
#840=CARTESIAN_POINT('',(7.99999953374989,8.08514473981971E-15,
5.55111512312578E-16));
#850=VERTEX_POINT('',#840);
#860=CARTESIAN_POINT('',(-7.99999953374989,7.105427357601E-15,0.));
#870=VERTEX_POINT('',#860);
#880=EDGE_CURVE('',#850,#870,#830,.T.);
#890=ORIENTED_EDGE('',*,*,#880,.T.);
#900=EDGE_CURVE('',#870,#850,#830,.T.);
#910=ORIENTED_EDGE('',*,*,#900,.T.);
#920=EDGE_LOOP('',(#910,#890));
#930=FACE_BOUND('',#920,.T.);
#940=CARTESIAN_POINT('',(-15.,-15.,0.));
#950=DIRECTION('',(0.,0.,1.));
#960=DIRECTION('',(1.,0.,0.));
#970=AXIS2_PLACEMENT_3D('',#940,#950,#960);
#980=CIRCLE('',#970,3.5);
#990=CARTESIAN_POINT('',(-11.5,-15.,0.));
#1000=VERTEX_POINT('',#990);
#1010=CARTESIAN_POINT('',(-18.5,-15.,0.));
#1020=VERTEX_POINT('',#1010);
#1030=EDGE_CURVE('',#1000,#1020,#980,.T.);
#1040=ORIENTED_EDGE('',*,*,#1030,.T.);
#1050=EDGE_CURVE('',#1020,#1000,#980,.T.);
#1060=ORIENTED_EDGE('',*,*,#1050,.T.);
#1070=EDGE_LOOP('',(#1060,#1040));
#1080=FACE_BOUND('',#1070,.T.);
#1090=CARTESIAN_POINT('',(15.,15.,0.));
#1100=DIRECTION('',(0.,0.,1.));
#1110=DIRECTION('',(1.,0.,0.));
#1120=AXIS2_PLACEMENT_3D('',#1090,#1100,#1110);
#1130=CIRCLE('',#1120,3.5);
#1140=CARTESIAN_POINT('',(11.5,15.,0.));
#1150=VERTEX_POINT('',#1140);
#1160=CARTESIAN_POINT('',(18.5,15.,0.));
#1170=VERTEX_POINT('',#1160);
#1180=EDGE_CURVE('',#1150,#1170,#1130,.T.);
#1190=ORIENTED_EDGE('',*,*,#1180,.T.);
#1200=EDGE_CURVE('',#1170,#1150,#1130,.T.);
#1210=ORIENTED_EDGE('',*,*,#1200,.T.);
#1220=EDGE_LOOP('',(#1210,#1190));
#1230=FACE_BOUND('',#1220,.T.);
#1240=ORIENTED_EDGE('',*,*,#230,.T.);
#1250=ORIENTED_EDGE('',*,*,#540,.T.);
#1260=CARTESIAN_POINT('',(0.,-20.,0.));
#1270=DIRECTION('',(-1.,0.,0.));
#1280=VECTOR('',#1270,1.);
#1290=LINE('',#1260,#1280);
#1300=CARTESIAN_POINT('',(20.,-20.,0.));
#1310=VERTEX_POINT('',#1300);
#1320=EDGE_CURVE('',#1310,#530,#1290,.T.);
#1330=ORIENTED_EDGE('',*,*,#1320,.T.);
#1340=CARTESIAN_POINT('',(20.,0.,0.));
#1350=DIRECTION('',(0.,-1.,0.));
#1360=VECTOR('',#1350,1.);
#1370=LINE('',#1340,#1360);
#1380=CARTESIAN_POINT('',(20.,20.,0.));
#1390=VERTEX_POINT('',#1380);
#1400=EDGE_CURVE('',#1390,#1310,#1370,.T.);
#1410=ORIENTED_EDGE('',*,*,#1400,.T.);
#1420=CARTESIAN_POINT('',(0.,20.,0.));
#1430=DIRECTION('',(1.,0.,0.));
#1440=VECTOR('',#1430,1.);
#1450=LINE('',#1420,#1440);
#1460=EDGE_CURVE('',#220,#1390,#1450,.T.);
#1470=ORIENTED_EDGE('',*,*,#1460,.T.);
#1480=EDGE_LOOP('',(#1470,#1410,#1330,#1250,#1240));
#1490=FACE_OUTER_BOUND('',#1480,.T.);
#1500=ADVANCED_FACE('',(#930,#1080,#1230,#1490),#780,.F.);
#1510=CARTESIAN_POINT('',(-5.25,20.,4.04));
#1520=DIRECTION('',(-0.,-1.,-0.));
#1530=DIRECTION('',(-1.,0.,0.));
#1540=AXIS2_PLACEMENT_3D('',#1510,#1520,#1530);
#1550=PLANE('',#1540);
#1560=CARTESIAN_POINT('',(0.,20.,4.));
#1570=DIRECTION('',(-1.,0.,0.));
#1580=VECTOR('',#1570,1.);
#1590=LINE('',#1560,#1580);
#1600=CARTESIAN_POINT('',(20.,20.,4.));
#1610=VERTEX_POINT('',#1600);
#1620=EDGE_CURVE('',#1610,#300,#1590,.T.);
#1630=ORIENTED_EDGE('',*,*,#1620,.F.);
#1640=ORIENTED_EDGE('',*,*,#310,.F.);
#1650=ORIENTED_EDGE('',*,*,#1460,.F.);
#1660=CARTESIAN_POINT('',(20.,20.,0.));
#1670=DIRECTION('',(0.,0.,-1.));
#1680=VECTOR('',#1670,1.);
#1690=LINE('',#1660,#1680);
#1700=EDGE_CURVE('',#1610,#1390,#1690,.T.);
#1710=ORIENTED_EDGE('',*,*,#1700,.T.);
#1720=EDGE_LOOP('',(#1710,#1650,#1640,#1630));
#1730=FACE_OUTER_BOUND('',#1720,.T.);
#1740=ADVANCED_FACE('',(#1730),#1550,.F.);
#1750=CARTESIAN_POINT('',(15.,15.,-0.0400000000000009));
#1760=DIRECTION('',(0.,0.,1.));
#1770=DIRECTION('',(1.,0.,0.));
#1780=AXIS2_PLACEMENT_3D('',#1750,#1760,#1770);
#1790=CYLINDRICAL_SURFACE('',#1780,3.5);
#1800=CARTESIAN_POINT('',(11.5,15.,-0.0400000000000009));
#1810=DIRECTION('',(0.,0.,1.));
#1820=VECTOR('',#1810,1.);
#1830=LINE('',#1800,#1820);
#1840=CARTESIAN_POINT('',(11.5,15.,4.));
#1850=VERTEX_POINT('',#1840);
#1860=EDGE_CURVE('',#1150,#1850,#1830,.T.);
#1870=ORIENTED_EDGE('',*,*,#1860,.F.);
#1880=CARTESIAN_POINT('',(15.,15.,4.));
#1890=DIRECTION('',(0.,0.,-1.));
#1900=DIRECTION('',(1.,0.,0.));
#1910=AXIS2_PLACEMENT_3D('',#1880,#1890,#1900);
#1920=CIRCLE('',#1910,3.5);
#1930=CARTESIAN_POINT('',(18.5,15.,4.));
#1940=VERTEX_POINT('',#1930);
#1950=EDGE_CURVE('',#1850,#1940,#1920,.T.);
#1960=ORIENTED_EDGE('',*,*,#1950,.F.);
#1970=CARTESIAN_POINT('',(18.5,15.,-0.0400000000000009));
#1980=DIRECTION('',(0.,0.,1.));
#1990=VECTOR('',#1980,1.);
#2000=LINE('',#1970,#1990);
#2010=EDGE_CURVE('',#1170,#1940,#2000,.T.);
#2020=ORIENTED_EDGE('',*,*,#2010,.T.);
#2030=ORIENTED_EDGE('',*,*,#1200,.F.);
#2040=EDGE_LOOP('',(#2030,#2020,#1960,#1870));
#2050=FACE_OUTER_BOUND('',#2040,.T.);
#2060=ADVANCED_FACE('',(#2050),#1790,.F.);
#2070=CARTESIAN_POINT('',(-15.,-15.,-0.0400000000000009));
#2080=DIRECTION('',(0.,0.,1.));
#2090=DIRECTION('',(1.,0.,0.));
#2100=AXIS2_PLACEMENT_3D('',#2070,#2080,#2090);
#2110=CYLINDRICAL_SURFACE('',#2100,3.5);
#2120=CARTESIAN_POINT('',(-11.5,-15.,-0.0400000000000009));
#2130=DIRECTION('',(0.,0.,1.));
#2140=VECTOR('',#2130,1.);
#2150=LINE('',#2120,#2140);
#2160=CARTESIAN_POINT('',(-11.5,-15.,4.));
#2170=VERTEX_POINT('',#2160);
#2180=EDGE_CURVE('',#1000,#2170,#2150,.T.);
#2190=ORIENTED_EDGE('',*,*,#2180,.F.);
#2200=CARTESIAN_POINT('',(-15.,-15.,4.));
#2210=DIRECTION('',(0.,0.,-1.));
#2220=DIRECTION('',(1.,0.,0.));
#2230=AXIS2_PLACEMENT_3D('',#2200,#2210,#2220);
#2240=CIRCLE('',#2230,3.5);
#2250=CARTESIAN_POINT('',(-18.5,-15.,4.));
#2260=VERTEX_POINT('',#2250);
#2270=EDGE_CURVE('',#2170,#2260,#2240,.T.);
#2280=ORIENTED_EDGE('',*,*,#2270,.F.);
#2290=CARTESIAN_POINT('',(-18.5,-15.,-0.0400000000000009));
#2300=DIRECTION('',(0.,0.,1.));
#2310=VECTOR('',#2300,1.);
#2320=LINE('',#2290,#2310);
#2330=EDGE_CURVE('',#1020,#2260,#2320,.T.);
#2340=ORIENTED_EDGE('',*,*,#2330,.T.);
#2350=ORIENTED_EDGE('',*,*,#1050,.F.);
#2360=EDGE_LOOP('',(#2350,#2340,#2280,#2190));
#2370=FACE_OUTER_BOUND('',#2360,.T.);
#2380=ADVANCED_FACE('',(#2370),#2110,.F.);
#2390=CARTESIAN_POINT('',(-20.4,-20.,-0.04));
#2400=DIRECTION('',(-0.,1.,0.));
#2410=DIRECTION('',(1.,0.,0.));
#2420=AXIS2_PLACEMENT_3D('',#2390,#2400,#2410);
#2430=PLANE('',#2420);
#2440=ORIENTED_EDGE('',*,*,#1320,.F.);
#2450=ORIENTED_EDGE('',*,*,#690,.F.);
#2460=CARTESIAN_POINT('',(0.,-20.,4.));
#2470=DIRECTION('',(1.,0.,0.));
#2480=VECTOR('',#2470,1.);
#2490=LINE('',#2460,#2480);
#2500=CARTESIAN_POINT('',(20.,-20.,4.));
#2510=VERTEX_POINT('',#2500);
#2520=EDGE_CURVE('',#620,#2510,#2490,.T.);
#2530=ORIENTED_EDGE('',*,*,#2520,.F.);
#2540=CARTESIAN_POINT('',(20.,-20.,0.));
#2550=DIRECTION('',(0.,0.,1.));
#2560=VECTOR('',#2550,1.);
#2570=LINE('',#2540,#2560);
#2580=EDGE_CURVE('',#1310,#2510,#2570,.T.);
#2590=ORIENTED_EDGE('',*,*,#2580,.T.);
#2600=EDGE_LOOP('',(#2590,#2530,#2450,#2440));
#2610=FACE_OUTER_BOUND('',#2600,.T.);
#2620=ADVANCED_FACE('',(#2610),#2430,.F.);
#2630=CARTESIAN_POINT('',(0.,7.105427357601E-15,0.577349999999999));
#2640=DIRECTION('',(0.,0.,-1.));
#2650=DIRECTION('',(-1.,0.,0.));
#2660=AXIS2_PLACEMENT_3D('',#2630,#2640,#2650);
#2670=CONICAL_SURFACE('',#2660,7.,1.0471975511966);
#2680=CARTESIAN_POINT('',(-7.,7.105427357601E-15,0.577349999999999));
#2690=DIRECTION('',(-0.866025403784439,0.,-0.5));
#2700=VECTOR('',#2690,8.08290376865476);
#2710=LINE('',#2680,#2700);
#2720=CARTESIAN_POINT('',(-7.,7.105427357601E-15,0.577349999999999));
#2730=VERTEX_POINT('',#2720);
#2740=EDGE_CURVE('',#2730,#870,#2710,.T.);
#2750=ORIENTED_EDGE('',*,*,#2740,.F.);
#2760=ORIENTED_EDGE('',*,*,#900,.F.);
#2770=CARTESIAN_POINT('',(7.,7.96268011700415E-15,0.577349999999999));
#2780=DIRECTION('',(0.866025403784439,1.06057523872491E-16,-0.5));
#2790=VECTOR('',#2780,8.08290376865476);
#2800=LINE('',#2770,#2790);
#2810=CARTESIAN_POINT('',(7.,7.96268011700415E-15,0.577349999999999));
#2820=VERTEX_POINT('',#2810);
#2830=EDGE_CURVE('',#2820,#850,#2800,.T.);
#2840=ORIENTED_EDGE('',*,*,#2830,.T.);
#2850=CARTESIAN_POINT('',(0.,7.105427357601E-15,0.577349999999999));
#2860=DIRECTION('',(0.,0.,1.));
#2870=DIRECTION('',(1.,0.,0.));
#2880=AXIS2_PLACEMENT_3D('',#2850,#2860,#2870);
#2890=CIRCLE('',#2880,7.);
#2900=EDGE_CURVE('',#2730,#2820,#2890,.T.);
#2910=ORIENTED_EDGE('',*,*,#2900,.T.);
#2920=EDGE_LOOP('',(#2910,#2840,#2760,#2750));
#2930=FACE_OUTER_BOUND('',#2920,.T.);
#2940=ADVANCED_FACE('',(#2930),#2670,.F.);
#2950=CARTESIAN_POINT('',(20.,-20.4,-0.04));
#2960=DIRECTION('',(-1.,0.,0.));
#2970=DIRECTION('',(0.,1.,0.));
#2980=AXIS2_PLACEMENT_3D('',#2950,#2960,#2970);
#2990=PLANE('',#2980);
#3000=ORIENTED_EDGE('',*,*,#2580,.F.);
#3010=CARTESIAN_POINT('',(20.,0.,4.));
#3020=DIRECTION('',(0.,1.,0.));
#3030=VECTOR('',#3020,1.);
#3040=LINE('',#3010,#3030);
#3050=EDGE_CURVE('',#2510,#1610,#3040,.T.);
#3060=ORIENTED_EDGE('',*,*,#3050,.F.);
#3070=ORIENTED_EDGE('',*,*,#1700,.F.);
#3080=ORIENTED_EDGE('',*,*,#1400,.F.);
#3090=EDGE_LOOP('',(#3080,#3070,#3060,#3000));
#3100=FACE_OUTER_BOUND('',#3090,.T.);
#3110=ADVANCED_FACE('',(#3100),#2990,.F.);
#3120=CARTESIAN_POINT('',(5.77789948289006E-31,-1.2657229938885E-15,14.1
));
#3130=DIRECTION('',(0.,0.,-1.));
#3140=DIRECTION('',(-1.,0.,0.));
#3150=AXIS2_PLACEMENT_3D('',#3120,#3130,#3140);
#3160=CYLINDRICAL_SURFACE('',#3150,11.);
#3170=CARTESIAN_POINT('',(11.,8.13884851735881E-17,14.1));
#3180=DIRECTION('',(0.,0.,-1.));
#3190=VECTOR('',#3180,1.);
#3200=LINE('',#3170,#3190);
#3210=CARTESIAN_POINT('',(11.,8.13884851735881E-17,14.));
#3220=VERTEX_POINT('',#3210);
#3230=CARTESIAN_POINT('',(11.,8.13884851735881E-17,4.));
#3240=VERTEX_POINT('',#3230);
#3250=EDGE_CURVE('',#3220,#3240,#3200,.T.);
#3260=ORIENTED_EDGE('',*,*,#3250,.T.);
#3270=CARTESIAN_POINT('',(-1.06844635881308E-32,6.98549363312485E-16,14.
));
#3280=DIRECTION('',(0.,0.,-1.));
#3290=DIRECTION('',(-1.,0.,0.));
#3300=AXIS2_PLACEMENT_3D('',#3270,#3280,#3290);
#3310=CIRCLE('',#3300,11.);
#3320=CARTESIAN_POINT('',(-11.,-1.2657229938885E-15,14.));
#3330=VERTEX_POINT('',#3320);
#3340=EDGE_CURVE('',#3330,#3220,#3310,.T.);
#3350=ORIENTED_EDGE('',*,*,#3340,.T.);
#3360=CARTESIAN_POINT('',(-11.,-1.2657229938885E-15,14.1));
#3370=DIRECTION('',(0.,0.,-1.));
#3380=VECTOR('',#3370,1.);
#3390=LINE('',#3360,#3380);
#3400=CARTESIAN_POINT('',(-11.,-1.2657229938885E-15,4.));
#3410=VERTEX_POINT('',#3400);
#3420=EDGE_CURVE('',#3330,#3410,#3390,.T.);
#3430=ORIENTED_EDGE('',*,*,#3420,.F.);
#3440=CARTESIAN_POINT('',(5.77789948289006E-31,-1.2657229938885E-15,4.))
;
#3450=DIRECTION('',(0.,0.,-1.));
#3460=DIRECTION('',(-1.,0.,0.));
#3470=AXIS2_PLACEMENT_3D('',#3440,#3450,#3460);
#3480=CIRCLE('',#3470,11.);
#3490=EDGE_CURVE('',#3410,#3240,#3480,.T.);
#3500=ORIENTED_EDGE('',*,*,#3490,.F.);
#3510=EDGE_LOOP('',(#3500,#3430,#3350,#3260));
#3520=FACE_OUTER_BOUND('',#3510,.T.);
#3530=ADVANCED_FACE('',(#3520),#3160,.T.);
#3540=CARTESIAN_POINT('',(-10.2,-10.2,15.));
#3550=DIRECTION('',(0.,0.,1.));
#3560=DIRECTION('',(1.,0.,0.));
#3570=AXIS2_PLACEMENT_3D('',#3540,#3550,#3560);
#3580=PLANE('',#3570);
#3590=CARTESIAN_POINT('',(0.,7.105427357601E-15,15.));
#3600=DIRECTION('',(0.,0.,1.));
#3610=DIRECTION('',(1.,0.,0.));
#3620=AXIS2_PLACEMENT_3D('',#3590,#3600,#3610);
#3630=CIRCLE('',#3620,8.);
#3640=CARTESIAN_POINT('',(8.,7.105427357601E-15,15.));
#3650=VERTEX_POINT('',#3640);
#3660=CARTESIAN_POINT('',(-8.,8.08514479691888E-15,15.));
#3670=VERTEX_POINT('',#3660);
#3680=EDGE_CURVE('',#3650,#3670,#3630,.T.);
#3690=ORIENTED_EDGE('',*,*,#3680,.F.);
#3700=EDGE_CURVE('',#3670,#3650,#3630,.T.);
#3710=ORIENTED_EDGE('',*,*,#3700,.F.);
#3720=EDGE_LOOP('',(#3710,#3690));
#3730=FACE_BOUND('',#3720,.T.);
#3740=CARTESIAN_POINT('',(-5.99158875465268E-31,2.66282172051347E-15,15.
));
#3750=DIRECTION('',(0.,0.,-1.));
#3760=DIRECTION('',(-1.,0.,0.));
#3770=AXIS2_PLACEMENT_3D('',#3740,#3750,#3760);
#3780=CIRCLE('',#3770,9.99999999999999);
#3790=CARTESIAN_POINT('',(-9.99999999999999,2.66282172051347E-15,15.));
#3800=VERTEX_POINT('',#3790);
#3810=CARTESIAN_POINT('',(9.99999999999999,3.88746851966082E-15,15.));
#3820=VERTEX_POINT('',#3810);
#3830=EDGE_CURVE('',#3800,#3820,#3780,.T.);
#3840=ORIENTED_EDGE('',*,*,#3830,.F.);
#3850=EDGE_CURVE('',#3820,#3800,#3780,.T.);
#3860=ORIENTED_EDGE('',*,*,#3850,.F.);
#3870=EDGE_LOOP('',(#3860,#3840));
#3880=FACE_OUTER_BOUND('',#3870,.T.);
#3890=ADVANCED_FACE('',(#3730,#3880),#3580,.T.);
#3900=CARTESIAN_POINT('',(-5.99158875465268E-31,2.66282172051347E-15,
13.99));
#3910=DIRECTION('',(0.,0.,-1.));
#3920=DIRECTION('',(-1.,0.,0.));
#3930=AXIS2_PLACEMENT_3D('',#3900,#3910,#3920);
#3940=CONICAL_SURFACE('',#3930,11.01,0.785398163397448);
#3950=CARTESIAN_POINT('',(-11.01,2.66282172051347E-15,13.99));
#3960=DIRECTION('',(-0.707106781186547,0.,-0.707106781186548));
#3970=VECTOR('',#3960,15.5704913217278);
#3980=LINE('',#3950,#3970);
#3990=EDGE_CURVE('',#3800,#3330,#3980,.T.);
#4000=ORIENTED_EDGE('',*,*,#3990,.T.);
#4010=ORIENTED_EDGE('',*,*,#3850,.T.);
#4020=CARTESIAN_POINT('',(11.01,4.01115784637471E-15,13.99));
#4030=DIRECTION('',(0.707106781186547,8.65956056235493E-17,
-0.707106781186548));
#4040=VECTOR('',#4030,15.5704913217278);
#4050=LINE('',#4020,#4040);
#4060=EDGE_CURVE('',#3820,#3220,#4050,.T.);
#4070=ORIENTED_EDGE('',*,*,#4060,.F.);
#4080=EDGE_CURVE('',#3220,#3330,#3310,.T.);
#4090=ORIENTED_EDGE('',*,*,#4080,.F.);
#4100=EDGE_LOOP('',(#4090,#4070,#4010,#4000));
#4110=FACE_OUTER_BOUND('',#4100,.T.);
#4120=ADVANCED_FACE('',(#4110),#3940,.T.);
#4130=CARTESIAN_POINT('',(-22.5,-20.5,4.));
#4140=DIRECTION('',(0.,0.,1.));
#4150=DIRECTION('',(1.,0.,0.));
#4160=AXIS2_PLACEMENT_3D('',#4130,#4140,#4150);
#4170=PLANE('',#4160);
#4180=EDGE_CURVE('',#3240,#3410,#3480,.T.);
#4190=ORIENTED_EDGE('',*,*,#4180,.T.);
#4200=ORIENTED_EDGE('',*,*,#3490,.T.);
#4210=EDGE_LOOP('',(#4200,#4190));
#4220=FACE_BOUND('',#4210,.T.);
#4230=ORIENTED_EDGE('',*,*,#1950,.T.);
#4240=EDGE_CURVE('',#1940,#1850,#1920,.T.);
#4250=ORIENTED_EDGE('',*,*,#4240,.T.);
#4260=EDGE_LOOP('',(#4250,#4230));
#4270=FACE_BOUND('',#4260,.T.);
#4280=ORIENTED_EDGE('',*,*,#2270,.T.);
#4290=EDGE_CURVE('',#2260,#2170,#2240,.T.);
#4300=ORIENTED_EDGE('',*,*,#4290,.T.);
#4310=EDGE_LOOP('',(#4300,#4280));
#4320=FACE_BOUND('',#4310,.T.);
#4330=ORIENTED_EDGE('',*,*,#1620,.T.);
#4340=ORIENTED_EDGE('',*,*,#3050,.T.);
#4350=ORIENTED_EDGE('',*,*,#2520,.T.);
#4360=ORIENTED_EDGE('',*,*,#630,.T.);
#4370=ORIENTED_EDGE('',*,*,#380,.T.);
#4380=EDGE_LOOP('',(#4370,#4360,#4350,#4340,#4330));
#4390=FACE_OUTER_BOUND('',#4380,.T.);
#4400=ADVANCED_FACE('',(#4220,#4270,#4320,#4390),#4170,.T.);
#4410=CARTESIAN_POINT('',(0.,7.105427357601E-15,15.));
#4420=DIRECTION('',(0.,0.,1.));
#4430=DIRECTION('',(1.,0.,0.));
#4440=AXIS2_PLACEMENT_3D('',#4410,#4420,#4430);
#4450=CYLINDRICAL_SURFACE('',#4440,7.);
#4460=CARTESIAN_POINT('',(-7.,7.96268011700415E-15,15.));
#4470=DIRECTION('',(0.,0.,1.));
#4480=VECTOR('',#4470,1.);
#4490=LINE('',#4460,#4480);
#4500=CARTESIAN_POINT('',(-7.,7.96268011700415E-15,14.4226497308104));
#4510=VERTEX_POINT('',#4500);
#4520=EDGE_CURVE('',#2730,#4510,#4490,.T.);
#4530=ORIENTED_EDGE('',*,*,#4520,.T.);
#4540=ORIENTED_EDGE('',*,*,#2900,.F.);
#4550=CARTESIAN_POINT('',(7.,7.105427357601E-15,15.));
#4560=DIRECTION('',(0.,0.,1.));
#4570=VECTOR('',#4560,1.);
#4580=LINE('',#4550,#4570);
#4590=CARTESIAN_POINT('',(7.,7.105427357601E-15,14.4226497308104));
#4600=VERTEX_POINT('',#4590);
#4610=EDGE_CURVE('',#2820,#4600,#4580,.T.);
#4620=ORIENTED_EDGE('',*,*,#4610,.F.);
#4630=CARTESIAN_POINT('',(0.,7.105427357601E-15,14.4226497308104));
#4640=DIRECTION('',(0.,0.,1.));
#4650=DIRECTION('',(1.,0.,0.));
#4660=AXIS2_PLACEMENT_3D('',#4630,#4640,#4650);
#4670=CIRCLE('',#4660,7.);
#4680=EDGE_CURVE('',#4510,#4600,#4670,.T.);
#4690=ORIENTED_EDGE('',*,*,#4680,.T.);
#4700=EDGE_LOOP('',(#4690,#4620,#4540,#4530));
#4710=FACE_OUTER_BOUND('',#4700,.T.);
#4720=ADVANCED_FACE('M16x2_1226002',(#4710),#4450,.F.);
#4730=COLOUR_RGB('',1.,0.,0.);
#4740=FILL_AREA_STYLE_COLOUR('',#4730);
#4750=FILL_AREA_STYLE('',(#4740));
#4760=SURFACE_STYLE_FILL_AREA(#4750);
#4770=SURFACE_SIDE_STYLE('',(#4760));
#4780=SURFACE_STYLE_USAGE(.BOTH.,#4770);
#4790=PRESENTATION_STYLE_ASSIGNMENT((#4780));
#4800=CARTESIAN_POINT('',(0.,7.105427357601E-15,14.4226497308104));
#4810=DIRECTION('',(0.,0.,1.));
#4820=DIRECTION('',(1.,0.,0.));
#4830=AXIS2_PLACEMENT_3D('',#4800,#4810,#4820);
#4840=CONICAL_SURFACE('',#4830,7.,1.0471975511966);
#4850=CARTESIAN_POINT('',(7.,7.105427357601E-15,14.4226497308104));
#4860=DIRECTION('',(0.866025403784438,0.,0.5));
#4870=VECTOR('',#4860,8.08290376865476);
#4880=LINE('',#4850,#4870);
#4890=EDGE_CURVE('',#4600,#3650,#4880,.T.);
#4900=ORIENTED_EDGE('',*,*,#4890,.F.);
#4910=ORIENTED_EDGE('',*,*,#3700,.T.);
#4920=CARTESIAN_POINT('',(-7.,7.96268011700415E-15,14.4226497308104));
#4930=DIRECTION('',(-0.866025403784438,1.06057523872491E-16,0.5));
#4940=VECTOR('',#4930,8.08290376865476);
#4950=LINE('',#4920,#4940);
#4960=EDGE_CURVE('',#4510,#3670,#4950,.T.);
#4970=ORIENTED_EDGE('',*,*,#4960,.T.);
#4980=ORIENTED_EDGE('',*,*,#4680,.F.);
#4990=EDGE_LOOP('',(#4980,#4970,#4910,#4900));
#5000=FACE_OUTER_BOUND('',#4990,.T.);
#5010=ADVANCED_FACE('',(#5000),#4840,.F.);
#5020=CARTESIAN_POINT('',(-15.,-15.,-0.0400000000000009));
#5030=DIRECTION('',(0.,0.,1.));
#5040=DIRECTION('',(1.,0.,0.));
#5050=AXIS2_PLACEMENT_3D('',#5020,#5030,#5040);
#5060=CYLINDRICAL_SURFACE('',#5050,3.5);
#5070=ORIENTED_EDGE('',*,*,#2180,.T.);
#5080=ORIENTED_EDGE('',*,*,#1030,.F.);
#5090=ORIENTED_EDGE('',*,*,#2330,.F.);
#5100=ORIENTED_EDGE('',*,*,#4290,.F.);
#5110=EDGE_LOOP('',(#5100,#5090,#5080,#5070));
#5120=FACE_OUTER_BOUND('',#5110,.T.);
#5130=ADVANCED_FACE('',(#5120),#5060,.F.);
#5140=CARTESIAN_POINT('',(5.77789948289006E-31,-1.2657229938885E-15,14.1
));
#5150=DIRECTION('',(0.,0.,-1.));
#5160=DIRECTION('',(-1.,0.,0.));
#5170=AXIS2_PLACEMENT_3D('',#5140,#5150,#5160);
#5180=CYLINDRICAL_SURFACE('',#5170,11.);
#5190=ORIENTED_EDGE('',*,*,#3250,.F.);
#5200=ORIENTED_EDGE('',*,*,#4180,.F.);
#5210=ORIENTED_EDGE('',*,*,#3420,.T.);
#5220=ORIENTED_EDGE('',*,*,#4080,.T.);
#5230=EDGE_LOOP('',(#5220,#5210,#5200,#5190));
#5240=FACE_OUTER_BOUND('',#5230,.T.);
#5250=ADVANCED_FACE('',(#5240),#5180,.T.);
#5260=CARTESIAN_POINT('',(0.,7.105427357601E-15,15.));
#5270=DIRECTION('',(0.,0.,1.));
#5280=DIRECTION('',(1.,0.,0.));
#5290=AXIS2_PLACEMENT_3D('',#5260,#5270,#5280);
#5300=CYLINDRICAL_SURFACE('',#5290,7.);
#5310=EDGE_CURVE('',#2820,#2730,#2890,.T.);
#5320=ORIENTED_EDGE('',*,*,#5310,.F.);
#5330=ORIENTED_EDGE('',*,*,#4520,.F.);
#5340=EDGE_CURVE('',#4600,#4510,#4670,.T.);
#5350=ORIENTED_EDGE('',*,*,#5340,.T.);
#5360=ORIENTED_EDGE('',*,*,#4610,.T.);
#5370=EDGE_LOOP('',(#5360,#5350,#5330,#5320));
#5380=FACE_OUTER_BOUND('',#5370,.T.);
#5390=ADVANCED_FACE('',(#5380),#5300,.F.);
#5400=COLOUR_RGB('',1.,0.,0.);
#5410=FILL_AREA_STYLE_COLOUR('',#5400);
#5420=FILL_AREA_STYLE('',(#5410));
#5430=SURFACE_STYLE_FILL_AREA(#5420);
#5440=SURFACE_SIDE_STYLE('',(#5430));
#5450=SURFACE_STYLE_USAGE(.BOTH.,#5440);
#5460=PRESENTATION_STYLE_ASSIGNMENT((#5450));
#5470=CARTESIAN_POINT('',(15.,15.,-0.0400000000000009));
#5480=DIRECTION('',(0.,0.,1.));
#5490=DIRECTION('',(1.,0.,0.));
#5500=AXIS2_PLACEMENT_3D('',#5470,#5480,#5490);
#5510=CYLINDRICAL_SURFACE('',#5500,3.5);
#5520=ORIENTED_EDGE('',*,*,#1860,.T.);
#5530=ORIENTED_EDGE('',*,*,#1180,.F.);
#5540=ORIENTED_EDGE('',*,*,#2010,.F.);
#5550=ORIENTED_EDGE('',*,*,#4240,.F.);
#5560=EDGE_LOOP('',(#5550,#5540,#5530,#5520));
#5570=FACE_OUTER_BOUND('',#5560,.T.);
#5580=ADVANCED_FACE('',(#5570),#5510,.F.);
#5590=CARTESIAN_POINT('',(0.,7.105427357601E-15,0.577349999999999));
#5600=DIRECTION('',(0.,0.,-1.));
#5610=DIRECTION('',(-1.,0.,0.));
#5620=AXIS2_PLACEMENT_3D('',#5590,#5600,#5610);
#5630=CONICAL_SURFACE('',#5620,7.,1.0471975511966);
#5640=ORIENTED_EDGE('',*,*,#5310,.T.);
#5650=ORIENTED_EDGE('',*,*,#2830,.F.);
#5660=ORIENTED_EDGE('',*,*,#880,.F.);
#5670=ORIENTED_EDGE('',*,*,#2740,.T.);
#5680=EDGE_LOOP('',(#5670,#5660,#5650,#5640));
#5690=FACE_OUTER_BOUND('',#5680,.T.);
#5700=ADVANCED_FACE('',(#5690),#5630,.F.);
#5710=CARTESIAN_POINT('',(0.,7.105427357601E-15,14.4226497308104));
#5720=DIRECTION('',(0.,0.,1.));
#5730=DIRECTION('',(1.,0.,0.));
#5740=AXIS2_PLACEMENT_3D('',#5710,#5720,#5730);
#5750=CONICAL_SURFACE('',#5740,7.,1.0471975511966);
#5760=ORIENTED_EDGE('',*,*,#5340,.F.);
#5770=ORIENTED_EDGE('',*,*,#4960,.F.);
#5780=ORIENTED_EDGE('',*,*,#3680,.T.);
#5790=ORIENTED_EDGE('',*,*,#4890,.T.);
#5800=EDGE_LOOP('',(#5790,#5780,#5770,#5760));
#5810=FACE_OUTER_BOUND('',#5800,.T.);
#5820=ADVANCED_FACE('',(#5810),#5750,.F.);
#5830=CARTESIAN_POINT('',(-5.99158875465268E-31,2.66282172051347E-15,
13.99));
#5840=DIRECTION('',(0.,0.,-1.));
#5850=DIRECTION('',(-1.,0.,0.));
#5860=AXIS2_PLACEMENT_3D('',#5830,#5840,#5850);
#5870=CONICAL_SURFACE('',#5860,11.01,0.785398163397448);
#5880=ORIENTED_EDGE('',*,*,#3340,.F.);
#5890=ORIENTED_EDGE('',*,*,#4060,.T.);
#5900=ORIENTED_EDGE('',*,*,#3830,.T.);
#5910=ORIENTED_EDGE('',*,*,#3990,.F.);
#5920=EDGE_LOOP('',(#5910,#5900,#5890,#5880));
#5930=FACE_OUTER_BOUND('',#5920,.T.);
#5940=ADVANCED_FACE('',(#5930),#5870,.T.);
#5950=CLOSED_SHELL('',(#420,#730,#1500,#1740,#2060,#2380,#2620,#2940,
#3110,#3530,#3890,#4120,#4400,#4720,#5010,#5130,#5250,#5390,#5580,#5700,
#5820,#5940));
#5960=MANIFOLD_SOLID_BREP('',#5950);
#5970=CARTESIAN_POINT('',(0.,0.,0.));
#5980=DIRECTION('',(0.,0.,1.));
#5990=DIRECTION('',(1.,0.,0.));
#6000=AXIS2_PLACEMENT_3D('',#5970,#5980,#5990);
#6010=APPLICATION_CONTEXT(' ');
#6020=APPLICATION_PROTOCOL_DEFINITION(' ','automotive_design',1998,#6010
);
#6030=PRODUCT_CONTEXT('',#6010,'mechanical');
#6040=PRODUCT_DEFINITION_CONTEXT('part definition',#6010,'design');
#6050=PRODUCT('Flansch-MMS-44_40x40-R15-M16_44.0246.26_PX173797',
'Flansch-MMS-44_40x40-R15-M16_44.0246.26_PX173797','',(#6030));
#6060=PRODUCT_RELATED_PRODUCT_CATEGORY('part',' ',(#6050));
#6070=PRODUCT_DEFINITION_FORMATION_WITH_SPECIFIED_SOURCE('','',#6050,
.BOUGHT.);
#6080=PRODUCT_DEFINITION('',' ',#6070,#6040);
#6090=PRODUCT_DEFINITION_SHAPE('','',#6080);
#6100=DIMENSIONAL_EXPONENTS(1.,0.,0.,0.,0.,0.,0.);
#6110=DIMENSIONAL_EXPONENTS(0.,0.,0.,0.,0.,0.,0.);
#6120=DIMENSIONAL_EXPONENTS(0.,0.,0.,0.,0.,0.,0.);
#6130=(LENGTH_UNIT() NAMED_UNIT(*) SI_UNIT(.MILLI.,.METRE.));
#6140=(NAMED_UNIT(*) PLANE_ANGLE_UNIT() SI_UNIT($,.RADIAN.));
#6150=(NAMED_UNIT(*) SI_UNIT($,.STERADIAN.) SOLID_ANGLE_UNIT());
#6160=(GEOMETRIC_REPRESENTATION_CONTEXT(3) 
GLOBAL_UNCERTAINTY_ASSIGNED_CONTEXT((#6170)) 
GLOBAL_UNIT_ASSIGNED_CONTEXT((#6130,#6140,#6150)) REPRESENTATION_CONTEXT
('',''));
#6170=UNCERTAINTY_MEASURE_WITH_UNIT(LENGTH_MEASURE(1.E-6),#6130,
'distance_accuracy_value','maximum gap value');
#6180=ADVANCED_BREP_SHAPE_REPRESENTATION('',(#6000,#5960),#6160);
#6190=SHAPE_DEFINITION_REPRESENTATION(#6090,#6180);
#6200=COLOUR_RGB('',0.690196096897125,0.886274576187134,1.);
#6210=FILL_AREA_STYLE_COLOUR('',#6200);
#6220=FILL_AREA_STYLE('',(#6210));
#6230=SURFACE_STYLE_FILL_AREA(#6220);
#6240=SURFACE_SIDE_STYLE('',(#6230));
#6250=SURFACE_STYLE_USAGE(.BOTH.,#6240);
#6260=PRESENTATION_STYLE_ASSIGNMENT((#6250));
#6270=STYLED_ITEM('',(#6260),#5960);
#6280=OVER_RIDING_STYLED_ITEM('',(#4790),#4720,#6270);
#6290=OVER_RIDING_STYLED_ITEM('',(#5460),#5390,#6270);
#6300=DRAUGHTING_MODEL('',(#6270,#6280,#6290),#6160);
#6310=CARTESIAN_POINT('',(60.,60.,0.));
#6320=DIRECTION('',(0.,0.,1.));
#6330=DIRECTION('',(1.,0.,0.));
#6340=AXIS2_PLACEMENT_3D('',#6310,#6320,#6330);
#6350=ITEM_DEFINED_TRANSFORMATION(
'Flansch-MMS-44_40x40-R15-M16_44.0246.26_PX173797','',#6000,#6340);
#6360=APPLICATION_CONTEXT(' ');
#6370=APPLICATION_PROTOCOL_DEFINITION(' ','automotive_design',1998,#6360
);
#6380=PRODUCT_CONTEXT('',#6360,'mechanical');
#6390=PRODUCT_DEFINITION_CONTEXT('part definition',#6360,'design');
#6400=PRODUCT('Flansch-MMS-44_40x40-R15-M16_44.0246.26_PX173797',
'Flansch-MMS-44_40x40-R15-M16_44.0246.26_PX173797','',(#6380));
#6410=PRODUCT_RELATED_PRODUCT_CATEGORY('part',' ',(#6400));
#6420=PRODUCT_DEFINITION_FORMATION_WITH_SPECIFIED_SOURCE('','',#6400,
.BOUGHT.);
#6430=PRODUCT_DEFINITION('',' ',#6420,#6390);
#6440=PRODUCT_DEFINITION_SHAPE('','',#6430);
#6450=DIMENSIONAL_EXPONENTS(1.,0.,0.,0.,0.,0.,0.);
#6460=DIMENSIONAL_EXPONENTS(0.,0.,0.,0.,0.,0.,0.);
#6470=DIMENSIONAL_EXPONENTS(0.,0.,0.,0.,0.,0.,0.);
#6480=(LENGTH_UNIT() NAMED_UNIT(*) SI_UNIT(.MILLI.,.METRE.));
#6490=(NAMED_UNIT(*) PLANE_ANGLE_UNIT() SI_UNIT($,.RADIAN.));
#6500=(NAMED_UNIT(*) SI_UNIT($,.STERADIAN.) SOLID_ANGLE_UNIT());
#6510=(GEOMETRIC_REPRESENTATION_CONTEXT(3) 
GLOBAL_UNCERTAINTY_ASSIGNED_CONTEXT((#6520)) 
GLOBAL_UNIT_ASSIGNED_CONTEXT((#6480,#6490,#6500)) REPRESENTATION_CONTEXT
('',''));
#6520=UNCERTAINTY_MEASURE_WITH_UNIT(LENGTH_MEASURE(1.E-6),#6480,
'distance_accuracy_value','maximum gap value');
#6530=SHAPE_REPRESENTATION('',(#6000,#6340),#6510);
#6540=SHAPE_DEFINITION_REPRESENTATION(#6440,#6530);
#6550=(REPRESENTATION_RELATIONSHIP('','',#6180,#6530) 
REPRESENTATION_RELATIONSHIP_WITH_TRANSFORMATION(#6350) 
SHAPE_REPRESENTATION_RELATIONSHIP());
#6560=NEXT_ASSEMBLY_USAGE_OCCURRENCE('1','',
'Flansch-MMS-44_40x40-R15-M16_44.0246.26_PX173797',#6430,#6080,'');
#6570=PRODUCT_DEFINITION_SHAPE('','',#6560);
#6580=CONTEXT_DEPENDENT_SHAPE_REPRESENTATION(#6550,#6570);
ENDSEC;
END-ISO-10303-21;
