ISO-10303-21;
HEADER;
FILE_DESCRIPTION(('Creo Elements/Direct Modeling STEP Export'),'2;1');
FILE_NAME(
'//KR-CAD2/PhoenixTemp/karl.letzgus/Konvertierung/44.0247_Flansch-MMS-44
_40x40-M10.stp','2022-03-21T 9:00:03',(''),(''),
'PTC Creo Elements/Direct Modeling STEP processor for AP214 (Solid Model
)',
'PTC Creo Elements/Direct Modeling 19.0C  15-Aug-2015 (C) Parametric Tec
hnology GmbH','');
FILE_SCHEMA(('AUTOMOTIVE_DESIGN { 1 0 10303 214 1 1 1 1 }'));
ENDSEC;
DATA;
#10=CARTESIAN_POINT('',(-22.5,-20.5,4.));
#20=DIRECTION('',(0.,0.,1.));
#30=DIRECTION('',(1.,0.,0.));
#40=AXIS2_PLACEMENT_3D('',#10,#20,#30);
#50=PLANE('',#40);
#60=CARTESIAN_POINT('',(15.,15.,4.));
#70=DIRECTION('',(0.,0.,-1.));
#80=DIRECTION('',(0.,1.,0.));
#90=AXIS2_PLACEMENT_3D('',#60,#70,#80);
#100=CIRCLE('',#90,3.3);
#110=CARTESIAN_POINT('',(15.,18.3,4.));
#120=VERTEX_POINT('',#110);
#130=CARTESIAN_POINT('',(15.,11.7,4.));
#140=VERTEX_POINT('',#130);
#150=EDGE_CURVE('',#120,#140,#100,.T.);
#160=ORIENTED_EDGE('',*,*,#150,.T.);
#170=EDGE_CURVE('',#140,#120,#100,.T.);
#180=ORIENTED_EDGE('',*,*,#170,.T.);
#190=EDGE_LOOP('',(#180,#160));
#200=FACE_BOUND('',#190,.T.);
#210=CARTESIAN_POINT('',(0.,0.,4.));
#220=DIRECTION('',(0.,0.,1.));
#230=DIRECTION('',(0.,1.,0.));
#240=AXIS2_PLACEMENT_3D('',#210,#220,#230);
#250=CIRCLE('',#240,11.);
#260=CARTESIAN_POINT('',(0.,11.,4.));
#270=VERTEX_POINT('',#260);
#280=CARTESIAN_POINT('',(-1.34711147906209E-15,-11.,4.));
#290=VERTEX_POINT('',#280);
#300=EDGE_CURVE('',#270,#290,#250,.T.);
#310=ORIENTED_EDGE('',*,*,#300,.F.);
#320=EDGE_CURVE('',#290,#270,#250,.T.);
#330=ORIENTED_EDGE('',*,*,#320,.F.);
#340=EDGE_LOOP('',(#330,#310));
#350=FACE_BOUND('',#340,.T.);
#360=CARTESIAN_POINT('',(-15.,-15.,4.));
#370=DIRECTION('',(0.,0.,-1.));
#380=DIRECTION('',(0.,1.,0.));
#390=AXIS2_PLACEMENT_3D('',#360,#370,#380);
#400=CIRCLE('',#390,3.3);
#410=CARTESIAN_POINT('',(-15.,-11.7,4.));
#420=VERTEX_POINT('',#410);
#430=CARTESIAN_POINT('',(-15.,-18.3,4.));
#440=VERTEX_POINT('',#430);
#450=EDGE_CURVE('',#420,#440,#400,.T.);
#460=ORIENTED_EDGE('',*,*,#450,.T.);
#470=EDGE_CURVE('',#440,#420,#400,.T.);
#480=ORIENTED_EDGE('',*,*,#470,.T.);
#490=EDGE_LOOP('',(#480,#460));
#500=FACE_BOUND('',#490,.T.);
#510=CARTESIAN_POINT('',(-20.,0.,4.));
#520=DIRECTION('',(0.,-1.,0.));
#530=VECTOR('',#520,1.);
#540=LINE('',#510,#530);
#550=CARTESIAN_POINT('',(-20.,20.,4.));
#560=VERTEX_POINT('',#550);
#570=CARTESIAN_POINT('',(-20.,-20.,4.));
#580=VERTEX_POINT('',#570);
#590=EDGE_CURVE('',#560,#580,#540,.T.);
#600=ORIENTED_EDGE('',*,*,#590,.T.);
#610=CARTESIAN_POINT('',(0.,20.,4.));
#620=DIRECTION('',(-1.,0.,0.));
#630=VECTOR('',#620,1.);
#640=LINE('',#610,#630);
#650=CARTESIAN_POINT('',(20.,20.,4.));
#660=VERTEX_POINT('',#650);
#670=EDGE_CURVE('',#660,#560,#640,.T.);
#680=ORIENTED_EDGE('',*,*,#670,.T.);
#690=CARTESIAN_POINT('',(20.,0.,4.));
#700=DIRECTION('',(0.,1.,0.));
#710=VECTOR('',#700,1.);
#720=LINE('',#690,#710);
#730=CARTESIAN_POINT('',(20.,-20.,4.));
#740=VERTEX_POINT('',#730);
#750=EDGE_CURVE('',#740,#660,#720,.T.);
#760=ORIENTED_EDGE('',*,*,#750,.T.);
#770=CARTESIAN_POINT('',(0.,-20.,4.));
#780=DIRECTION('',(1.,0.,0.));
#790=VECTOR('',#780,1.);
#800=LINE('',#770,#790);
#810=EDGE_CURVE('',#580,#740,#800,.T.);
#820=ORIENTED_EDGE('',*,*,#810,.T.);
#830=EDGE_LOOP('',(#820,#760,#680,#600));
#840=FACE_OUTER_BOUND('',#830,.T.);
#850=ADVANCED_FACE('',(#200,#350,#500,#840),#50,.T.);
#860=CARTESIAN_POINT('',(-20.4,-20.4,0.));
#870=DIRECTION('',(0.,0.,1.));
#880=DIRECTION('',(1.,0.,0.));
#890=AXIS2_PLACEMENT_3D('',#860,#870,#880);
#900=PLANE('',#890);
#910=CARTESIAN_POINT('',(15.,15.,0.));
#920=DIRECTION('',(0.,0.,-1.));
#930=DIRECTION('',(0.,1.,0.));
#940=AXIS2_PLACEMENT_3D('',#910,#920,#930);
#950=CIRCLE('',#940,3.3);
#960=CARTESIAN_POINT('',(15.,18.3,0.));
#970=VERTEX_POINT('',#960);
#980=CARTESIAN_POINT('',(15.,11.7,0.));
#990=VERTEX_POINT('',#980);
#1000=EDGE_CURVE('',#970,#990,#950,.T.);
#1010=ORIENTED_EDGE('',*,*,#1000,.F.);
#1020=EDGE_CURVE('',#990,#970,#950,.T.);
#1030=ORIENTED_EDGE('',*,*,#1020,.F.);
#1040=EDGE_LOOP('',(#1030,#1010));
#1050=FACE_BOUND('',#1040,.T.);
#1060=CARTESIAN_POINT('',(-15.,-15.,0.));
#1070=DIRECTION('',(0.,0.,-1.));
#1080=DIRECTION('',(0.,1.,0.));
#1090=AXIS2_PLACEMENT_3D('',#1060,#1070,#1080);
#1100=CIRCLE('',#1090,3.3);
#1110=CARTESIAN_POINT('',(-15.,-11.7,0.));
#1120=VERTEX_POINT('',#1110);
#1130=CARTESIAN_POINT('',(-15.,-18.3,0.));
#1140=VERTEX_POINT('',#1130);
#1150=EDGE_CURVE('',#1120,#1140,#1100,.T.);
#1160=ORIENTED_EDGE('',*,*,#1150,.F.);
#1170=EDGE_CURVE('',#1140,#1120,#1100,.T.);
#1180=ORIENTED_EDGE('',*,*,#1170,.F.);
#1190=EDGE_LOOP('',(#1180,#1160));
#1200=FACE_BOUND('',#1190,.T.);
#1210=CARTESIAN_POINT('',(0.,0.,0.));
#1220=DIRECTION('',(0.,0.,1.));
#1230=DIRECTION('',(1.,0.,0.));
#1240=AXIS2_PLACEMENT_3D('',#1210,#1220,#1230);
#1250=CIRCLE('',#1240,5.00000051633782);
#1260=CARTESIAN_POINT('',(5.00000051633782,6.12323462806823E-16,
-5.55111512312578E-17));
#1270=VERTEX_POINT('',#1260);
#1280=CARTESIAN_POINT('',(-5.00000051633782,0.,-5.55111512312578E-17));
#1290=VERTEX_POINT('',#1280);
#1300=EDGE_CURVE('',#1270,#1290,#1250,.T.);
#1310=ORIENTED_EDGE('',*,*,#1300,.T.);
#1320=EDGE_CURVE('',#1290,#1270,#1250,.T.);
#1330=ORIENTED_EDGE('',*,*,#1320,.T.);
#1340=EDGE_LOOP('',(#1330,#1310));
#1350=FACE_BOUND('',#1340,.T.);
#1360=CARTESIAN_POINT('',(0.,-20.,0.));
#1370=DIRECTION('',(1.,0.,0.));
#1380=VECTOR('',#1370,1.);
#1390=LINE('',#1360,#1380);
#1400=CARTESIAN_POINT('',(-20.,-20.,0.));
#1410=VERTEX_POINT('',#1400);
#1420=CARTESIAN_POINT('',(20.,-20.,0.));
#1430=VERTEX_POINT('',#1420);
#1440=EDGE_CURVE('',#1410,#1430,#1390,.T.);
#1450=ORIENTED_EDGE('',*,*,#1440,.F.);
#1460=CARTESIAN_POINT('',(20.,0.,0.));
#1470=DIRECTION('',(0.,1.,0.));
#1480=VECTOR('',#1470,1.);
#1490=LINE('',#1460,#1480);
#1500=CARTESIAN_POINT('',(20.,20.,0.));
#1510=VERTEX_POINT('',#1500);
#1520=EDGE_CURVE('',#1430,#1510,#1490,.T.);
#1530=ORIENTED_EDGE('',*,*,#1520,.F.);
#1540=CARTESIAN_POINT('',(0.,20.,0.));
#1550=DIRECTION('',(-1.,0.,0.));
#1560=VECTOR('',#1550,1.);
#1570=LINE('',#1540,#1560);
#1580=CARTESIAN_POINT('',(-20.,20.,0.));
#1590=VERTEX_POINT('',#1580);
#1600=EDGE_CURVE('',#1510,#1590,#1570,.T.);
#1610=ORIENTED_EDGE('',*,*,#1600,.F.);
#1620=CARTESIAN_POINT('',(-20.,0.,0.));
#1630=DIRECTION('',(0.,-1.,0.));
#1640=VECTOR('',#1630,1.);
#1650=LINE('',#1620,#1640);
#1660=EDGE_CURVE('',#1590,#1410,#1650,.T.);
#1670=ORIENTED_EDGE('',*,*,#1660,.F.);
#1680=EDGE_LOOP('',(#1670,#1610,#1530,#1450));
#1690=FACE_OUTER_BOUND('',#1680,.T.);
#1700=ADVANCED_FACE('',(#1050,#1200,#1350,#1690),#900,.F.);
#1710=CARTESIAN_POINT('',(-20.,20.,0.));
#1720=DIRECTION('',(-0.,1.,0.));
#1730=DIRECTION('',(1.,0.,0.));
#1740=AXIS2_PLACEMENT_3D('',#1710,#1720,#1730);
#1750=PLANE('',#1740);
#1760=CARTESIAN_POINT('',(-20.,20.,0.));
#1770=DIRECTION('',(0.,0.,1.));
#1780=VECTOR('',#1770,1.);
#1790=LINE('',#1760,#1780);
#1800=EDGE_CURVE('',#1590,#560,#1790,.T.);
#1810=ORIENTED_EDGE('',*,*,#1800,.T.);
#1820=ORIENTED_EDGE('',*,*,#1600,.T.);
#1830=CARTESIAN_POINT('',(20.,20.,0.));
#1840=DIRECTION('',(0.,0.,1.));
#1850=VECTOR('',#1840,1.);
#1860=LINE('',#1830,#1850);
#1870=EDGE_CURVE('',#1510,#660,#1860,.T.);
#1880=ORIENTED_EDGE('',*,*,#1870,.F.);
#1890=ORIENTED_EDGE('',*,*,#670,.F.);
#1900=EDGE_LOOP('',(#1890,#1880,#1820,#1810));
#1910=FACE_OUTER_BOUND('',#1900,.T.);
#1920=ADVANCED_FACE('',(#1910),#1750,.T.);
#1930=CARTESIAN_POINT('',(0.,0.,4.));
#1940=DIRECTION('',(0.,0.,1.));
#1950=DIRECTION('',(0.,1.,0.));
#1960=AXIS2_PLACEMENT_3D('',#1930,#1940,#1950);
#1970=CYLINDRICAL_SURFACE('',#1960,11.);
#1980=CARTESIAN_POINT('',(0.,11.,4.));
#1990=DIRECTION('',(0.,0.,1.));
#2000=VECTOR('',#1990,1.);
#2010=LINE('',#1980,#2000);
#2020=CARTESIAN_POINT('',(0.,11.,11.));
#2030=VERTEX_POINT('',#2020);
#2040=EDGE_CURVE('',#270,#2030,#2010,.T.);
#2050=ORIENTED_EDGE('',*,*,#2040,.T.);
#2060=ORIENTED_EDGE('',*,*,#320,.T.);
#2070=CARTESIAN_POINT('',(-1.34711147906209E-15,-11.,4.));
#2080=DIRECTION('',(0.,0.,1.));
#2090=VECTOR('',#2080,1.);
#2100=LINE('',#2070,#2090);
#2110=CARTESIAN_POINT('',(-1.34711147906209E-15,-11.,11.));
#2120=VERTEX_POINT('',#2110);
#2130=EDGE_CURVE('',#290,#2120,#2100,.T.);
#2140=ORIENTED_EDGE('',*,*,#2130,.F.);
#2150=CARTESIAN_POINT('',(0.,0.,11.));
#2160=DIRECTION('',(0.,0.,1.));
#2170=DIRECTION('',(0.,1.,0.));
#2180=AXIS2_PLACEMENT_3D('',#2150,#2160,#2170);
#2190=CIRCLE('',#2180,11.);
#2200=EDGE_CURVE('',#2120,#2030,#2190,.T.);
#2210=ORIENTED_EDGE('',*,*,#2200,.F.);
#2220=EDGE_LOOP('',(#2210,#2140,#2060,#2050));
#2230=FACE_OUTER_BOUND('',#2220,.T.);
#2240=ADVANCED_FACE('',(#2230),#1970,.T.);
#2250=CARTESIAN_POINT('',(0.,0.,12.));
#2260=DIRECTION('',(0.,0.,-1.));
#2270=DIRECTION('',(0.,-1.,0.));
#2280=AXIS2_PLACEMENT_3D('',#2250,#2260,#2270);
#2290=CONICAL_SURFACE('',#2280,10.,0.785398163397448);
#2300=CARTESIAN_POINT('',(-1.22464679914735E-15,10.,12.));
#2310=DIRECTION('',(-8.65956056235493E-17,0.707106781186548,
-0.707106781186548));
#2320=VECTOR('',#2310,14.1421356237309);
#2330=LINE('',#2300,#2320);
#2340=CARTESIAN_POINT('',(-1.22464679914735E-15,10.,12.));
#2350=VERTEX_POINT('',#2340);
#2360=EDGE_CURVE('',#2350,#2030,#2330,.T.);
#2370=ORIENTED_EDGE('',*,*,#2360,.F.);
#2380=ORIENTED_EDGE('',*,*,#2200,.T.);
#2390=CARTESIAN_POINT('',(0.,-10.,12.));
#2400=DIRECTION('',(0.,-0.707106781186548,-0.707106781186548));
#2410=VECTOR('',#2400,14.1421356237309);
#2420=LINE('',#2390,#2410);
#2430=CARTESIAN_POINT('',(0.,-10.,12.));
#2440=VERTEX_POINT('',#2430);
#2450=EDGE_CURVE('',#2440,#2120,#2420,.T.);
#2460=ORIENTED_EDGE('',*,*,#2450,.T.);
#2470=CARTESIAN_POINT('',(0.,0.,12.));
#2480=DIRECTION('',(0.,0.,1.));
#2490=DIRECTION('',(0.,1.,0.));
#2500=AXIS2_PLACEMENT_3D('',#2470,#2480,#2490);
#2510=CIRCLE('',#2500,10.);
#2520=EDGE_CURVE('',#2440,#2350,#2510,.T.);
#2530=ORIENTED_EDGE('',*,*,#2520,.F.);
#2540=EDGE_LOOP('',(#2530,#2460,#2380,#2370));
#2550=FACE_OUTER_BOUND('',#2540,.T.);
#2560=ADVANCED_FACE('',(#2550),#2290,.T.);
#2570=CARTESIAN_POINT('',(0.,0.,12.));
#2580=DIRECTION('',(0.,-0.,1.));
#2590=DIRECTION('',(0.,1.,0.));
#2600=AXIS2_PLACEMENT_3D('',#2570,#2580,#2590);
#2610=PLANE('',#2600);
#2620=CARTESIAN_POINT('',(0.,0.,12.));
#2630=DIRECTION('',(0.,0.,1.));
#2640=DIRECTION('',(1.,0.,0.));
#2650=AXIS2_PLACEMENT_3D('',#2620,#2630,#2640);
#2660=CIRCLE('',#2650,5.);
#2670=CARTESIAN_POINT('',(5.,0.,12.));
#2680=VERTEX_POINT('',#2670);
#2690=CARTESIAN_POINT('',(-5.,6.12323399573676E-16,12.));
#2700=VERTEX_POINT('',#2690);
#2710=EDGE_CURVE('',#2680,#2700,#2660,.T.);
#2720=ORIENTED_EDGE('',*,*,#2710,.F.);
#2730=EDGE_CURVE('',#2700,#2680,#2660,.T.);
#2740=ORIENTED_EDGE('',*,*,#2730,.F.);
#2750=EDGE_LOOP('',(#2740,#2720));
#2760=FACE_BOUND('',#2750,.T.);
#2770=EDGE_CURVE('',#2350,#2440,#2510,.T.);
#2780=ORIENTED_EDGE('',*,*,#2770,.T.);
#2790=ORIENTED_EDGE('',*,*,#2520,.T.);
#2800=EDGE_LOOP('',(#2790,#2780));
#2810=FACE_OUTER_BOUND('',#2800,.T.);
#2820=ADVANCED_FACE('',(#2760,#2810),#2610,.T.);
#2830=CARTESIAN_POINT('',(0.,0.,11.5669872981078));
#2840=DIRECTION('',(0.,0.,1.));
#2850=DIRECTION('',(1.,0.,0.));
#2860=AXIS2_PLACEMENT_3D('',#2830,#2840,#2850);
#2870=CONICAL_SURFACE('',#2860,4.25,1.0471975511966);
#2880=CARTESIAN_POINT('',(4.25,0.,11.5669872981078));
#2890=DIRECTION('',(0.866025403784439,0.,0.5));
#2900=VECTOR('',#2890,4.90747728811182);
#2910=LINE('',#2880,#2900);
#2920=CARTESIAN_POINT('',(4.25,0.,11.5669872981078));
#2930=VERTEX_POINT('',#2920);
#2940=EDGE_CURVE('',#2930,#2680,#2910,.T.);
#2950=ORIENTED_EDGE('',*,*,#2940,.F.);
#2960=ORIENTED_EDGE('',*,*,#2730,.T.);
#2970=CARTESIAN_POINT('',(-4.25,5.20474889637625E-16,11.5669872981078));
#2980=DIRECTION('',(-0.866025403784439,1.06057523872491E-16,0.5));
#2990=VECTOR('',#2980,4.90747728811182);
#3000=LINE('',#2970,#2990);
#3010=CARTESIAN_POINT('',(-4.25,5.20474889637625E-16,11.5669872981078));
#3020=VERTEX_POINT('',#3010);
#3030=EDGE_CURVE('',#3020,#2700,#3000,.T.);
#3040=ORIENTED_EDGE('',*,*,#3030,.T.);
#3050=CARTESIAN_POINT('',(0.,0.,11.5669872981078));
#3060=DIRECTION('',(0.,0.,1.));
#3070=DIRECTION('',(1.,0.,0.));
#3080=AXIS2_PLACEMENT_3D('',#3050,#3060,#3070);
#3090=CIRCLE('',#3080,4.25);
#3100=EDGE_CURVE('',#3020,#2930,#3090,.T.);
#3110=ORIENTED_EDGE('',*,*,#3100,.F.);
#3120=EDGE_LOOP('',(#3110,#3040,#2960,#2950));
#3130=FACE_OUTER_BOUND('',#3120,.T.);
#3140=ADVANCED_FACE('',(#3130),#2870,.F.);
#3150=CARTESIAN_POINT('',(0.,0.,0.433013000000001));
#3160=DIRECTION('',(0.,0.,-1.));
#3170=DIRECTION('',(-1.,0.,0.));
#3180=AXIS2_PLACEMENT_3D('',#3150,#3160,#3170);
#3190=CONICAL_SURFACE('',#3180,4.25,1.0471975511966);
#3200=CARTESIAN_POINT('',(-4.25,0.,0.433013000000001));
#3210=DIRECTION('',(-0.866025403784439,0.,-0.5));
#3220=VECTOR('',#3210,4.90747728811182);
#3230=LINE('',#3200,#3220);
#3240=CARTESIAN_POINT('',(-4.25,0.,0.433013000000001));
#3250=VERTEX_POINT('',#3240);
#3260=EDGE_CURVE('',#3250,#1290,#3230,.T.);
#3270=ORIENTED_EDGE('',*,*,#3260,.F.);
#3280=ORIENTED_EDGE('',*,*,#1320,.F.);
#3290=CARTESIAN_POINT('',(4.25,5.20474889637625E-16,0.433013000000001));
#3300=DIRECTION('',(0.866025403784439,1.06057523872491E-16,-0.5));
#3310=VECTOR('',#3300,4.90747728811182);
#3320=LINE('',#3290,#3310);
#3330=CARTESIAN_POINT('',(4.25,5.20474889637625E-16,0.433013000000001));
#3340=VERTEX_POINT('',#3330);
#3350=EDGE_CURVE('',#3340,#1270,#3320,.T.);
#3360=ORIENTED_EDGE('',*,*,#3350,.T.);
#3370=CARTESIAN_POINT('',(0.,0.,0.433013000000001));
#3380=DIRECTION('',(0.,0.,1.));
#3390=DIRECTION('',(1.,0.,0.));
#3400=AXIS2_PLACEMENT_3D('',#3370,#3380,#3390);
#3410=CIRCLE('',#3400,4.25);
#3420=EDGE_CURVE('',#3250,#3340,#3410,.T.);
#3430=ORIENTED_EDGE('',*,*,#3420,.T.);
#3440=EDGE_LOOP('',(#3430,#3360,#3280,#3270));
#3450=FACE_OUTER_BOUND('',#3440,.T.);
#3460=ADVANCED_FACE('',(#3450),#3190,.F.);
#3470=CARTESIAN_POINT('',(20.,20.,0.));
#3480=DIRECTION('',(1.,0.,0.));
#3490=DIRECTION('',(0.,-1.,0.));
#3500=AXIS2_PLACEMENT_3D('',#3470,#3480,#3490);
#3510=PLANE('',#3500);
#3520=ORIENTED_EDGE('',*,*,#750,.F.);
#3530=ORIENTED_EDGE('',*,*,#1870,.T.);
#3540=ORIENTED_EDGE('',*,*,#1520,.T.);
#3550=CARTESIAN_POINT('',(20.,-20.,0.));
#3560=DIRECTION('',(0.,0.,1.));
#3570=VECTOR('',#3560,1.);
#3580=LINE('',#3550,#3570);
#3590=EDGE_CURVE('',#1430,#740,#3580,.T.);
#3600=ORIENTED_EDGE('',*,*,#3590,.F.);
#3610=EDGE_LOOP('',(#3600,#3540,#3530,#3520));
#3620=FACE_OUTER_BOUND('',#3610,.T.);
#3630=ADVANCED_FACE('',(#3620),#3510,.T.);
#3640=CARTESIAN_POINT('',(20.,-20.,0.));
#3650=DIRECTION('',(-0.,-1.,-0.));
#3660=DIRECTION('',(-1.,0.,0.));
#3670=AXIS2_PLACEMENT_3D('',#3640,#3650,#3660);
#3680=PLANE('',#3670);
#3690=ORIENTED_EDGE('',*,*,#810,.F.);
#3700=ORIENTED_EDGE('',*,*,#3590,.T.);
#3710=ORIENTED_EDGE('',*,*,#1440,.T.);
#3720=CARTESIAN_POINT('',(-20.,-20.,0.));
#3730=DIRECTION('',(0.,0.,1.));
#3740=VECTOR('',#3730,1.);
#3750=LINE('',#3720,#3740);
#3760=EDGE_CURVE('',#1410,#580,#3750,.T.);
#3770=ORIENTED_EDGE('',*,*,#3760,.F.);
#3780=EDGE_LOOP('',(#3770,#3710,#3700,#3690));
#3790=FACE_OUTER_BOUND('',#3780,.T.);
#3800=ADVANCED_FACE('',(#3790),#3680,.T.);
#3810=CARTESIAN_POINT('',(15.,15.,330.));
#3820=DIRECTION('',(0.,0.,-1.));
#3830=DIRECTION('',(0.,1.,0.));
#3840=AXIS2_PLACEMENT_3D('',#3810,#3820,#3830);
#3850=CYLINDRICAL_SURFACE('',#3840,3.3);
#3860=CARTESIAN_POINT('',(15.,18.3,330.));
#3870=DIRECTION('',(0.,0.,-1.));
#3880=VECTOR('',#3870,1.);
#3890=LINE('',#3860,#3880);
#3900=EDGE_CURVE('',#120,#970,#3890,.T.);
#3910=ORIENTED_EDGE('',*,*,#3900,.F.);
#3920=ORIENTED_EDGE('',*,*,#1020,.T.);
#3930=CARTESIAN_POINT('',(15.,11.7,330.));
#3940=DIRECTION('',(0.,0.,-1.));
#3950=VECTOR('',#3940,1.);
#3960=LINE('',#3930,#3950);
#3970=EDGE_CURVE('',#140,#990,#3960,.T.);
#3980=ORIENTED_EDGE('',*,*,#3970,.T.);
#3990=ORIENTED_EDGE('',*,*,#170,.F.);
#4000=EDGE_LOOP('',(#3990,#3980,#3920,#3910));
#4010=FACE_OUTER_BOUND('',#4000,.T.);
#4020=ADVANCED_FACE('',(#4010),#3850,.F.);
#4030=CARTESIAN_POINT('',(-15.,-15.,330.));
#4040=DIRECTION('',(0.,0.,-1.));
#4050=DIRECTION('',(0.,1.,0.));
#4060=AXIS2_PLACEMENT_3D('',#4030,#4040,#4050);
#4070=CYLINDRICAL_SURFACE('',#4060,3.3);
#4080=CARTESIAN_POINT('',(-15.,-11.7,330.));
#4090=DIRECTION('',(0.,0.,-1.));
#4100=VECTOR('',#4090,1.);
#4110=LINE('',#4080,#4100);
#4120=EDGE_CURVE('',#420,#1120,#4110,.T.);
#4130=ORIENTED_EDGE('',*,*,#4120,.F.);
#4140=ORIENTED_EDGE('',*,*,#1170,.T.);
#4150=CARTESIAN_POINT('',(-15.,-18.3,330.));
#4160=DIRECTION('',(0.,0.,-1.));
#4170=VECTOR('',#4160,1.);
#4180=LINE('',#4150,#4170);
#4190=EDGE_CURVE('',#440,#1140,#4180,.T.);
#4200=ORIENTED_EDGE('',*,*,#4190,.T.);
#4210=ORIENTED_EDGE('',*,*,#470,.F.);
#4220=EDGE_LOOP('',(#4210,#4200,#4140,#4130));
#4230=FACE_OUTER_BOUND('',#4220,.T.);
#4240=ADVANCED_FACE('',(#4230),#4070,.F.);
#4250=CARTESIAN_POINT('',(-20.,-20.,0.));
#4260=DIRECTION('',(-1.,0.,0.));
#4270=DIRECTION('',(0.,1.,0.));
#4280=AXIS2_PLACEMENT_3D('',#4250,#4260,#4270);
#4290=PLANE('',#4280);
#4300=ORIENTED_EDGE('',*,*,#3760,.T.);
#4310=ORIENTED_EDGE('',*,*,#1660,.T.);
#4320=ORIENTED_EDGE('',*,*,#1800,.F.);
#4330=ORIENTED_EDGE('',*,*,#590,.F.);
#4340=EDGE_LOOP('',(#4330,#4320,#4310,#4300));
#4350=FACE_OUTER_BOUND('',#4340,.T.);
#4360=ADVANCED_FACE('',(#4350),#4290,.T.);
#4370=CARTESIAN_POINT('',(0.,0.,12.));
#4380=DIRECTION('',(0.,0.,1.));
#4390=DIRECTION('',(1.,0.,0.));
#4400=AXIS2_PLACEMENT_3D('',#4370,#4380,#4390);
#4410=CYLINDRICAL_SURFACE('',#4400,4.25);
#4420=CARTESIAN_POINT('',(-4.25,5.20474889637625E-16,12.));
#4430=DIRECTION('',(0.,0.,1.));
#4440=VECTOR('',#4430,1.);
#4450=LINE('',#4420,#4440);
#4460=EDGE_CURVE('',#3250,#3020,#4450,.T.);
#4470=ORIENTED_EDGE('',*,*,#4460,.T.);
#4480=ORIENTED_EDGE('',*,*,#3420,.F.);
#4490=CARTESIAN_POINT('',(4.25,0.,12.));
#4500=DIRECTION('',(0.,0.,1.));
#4510=VECTOR('',#4500,1.);
#4520=LINE('',#4490,#4510);
#4530=EDGE_CURVE('',#3340,#2930,#4520,.T.);
#4540=ORIENTED_EDGE('',*,*,#4530,.F.);
#4550=ORIENTED_EDGE('',*,*,#3100,.T.);
#4560=EDGE_LOOP('',(#4550,#4540,#4480,#4470));
#4570=FACE_OUTER_BOUND('',#4560,.T.);
#4580=ADVANCED_FACE('M10x1.5_4840396',(#4570),#4410,.F.);
#4590=COLOUR_RGB('',1.,0.,0.);
#4600=FILL_AREA_STYLE_COLOUR('',#4590);
#4610=FILL_AREA_STYLE('',(#4600));
#4620=SURFACE_STYLE_FILL_AREA(#4610);
#4630=SURFACE_SIDE_STYLE('',(#4620));
#4640=SURFACE_STYLE_USAGE(.BOTH.,#4630);
#4650=PRESENTATION_STYLE_ASSIGNMENT((#4640));
#4660=CARTESIAN_POINT('',(-15.,-15.,330.));
#4670=DIRECTION('',(0.,0.,-1.));
#4680=DIRECTION('',(0.,1.,0.));
#4690=AXIS2_PLACEMENT_3D('',#4660,#4670,#4680);
#4700=CYLINDRICAL_SURFACE('',#4690,3.3);
#4710=ORIENTED_EDGE('',*,*,#450,.F.);
#4720=ORIENTED_EDGE('',*,*,#4190,.F.);
#4730=ORIENTED_EDGE('',*,*,#1150,.T.);
#4740=ORIENTED_EDGE('',*,*,#4120,.T.);
#4750=EDGE_LOOP('',(#4740,#4730,#4720,#4710));
#4760=FACE_OUTER_BOUND('',#4750,.T.);
#4770=ADVANCED_FACE('',(#4760),#4700,.F.);
#4780=CARTESIAN_POINT('',(0.,0.,12.));
#4790=DIRECTION('',(0.,0.,1.));
#4800=DIRECTION('',(1.,0.,0.));
#4810=AXIS2_PLACEMENT_3D('',#4780,#4790,#4800);
#4820=CYLINDRICAL_SURFACE('',#4810,4.25);
#4830=EDGE_CURVE('',#3340,#3250,#3410,.T.);
#4840=ORIENTED_EDGE('',*,*,#4830,.F.);
#4850=ORIENTED_EDGE('',*,*,#4460,.F.);
#4860=EDGE_CURVE('',#2930,#3020,#3090,.T.);
#4870=ORIENTED_EDGE('',*,*,#4860,.T.);
#4880=ORIENTED_EDGE('',*,*,#4530,.T.);
#4890=EDGE_LOOP('',(#4880,#4870,#4850,#4840));
#4900=FACE_OUTER_BOUND('',#4890,.T.);
#4910=ADVANCED_FACE('',(#4900),#4820,.F.);
#4920=COLOUR_RGB('',1.,0.,0.);
#4930=FILL_AREA_STYLE_COLOUR('',#4920);
#4940=FILL_AREA_STYLE('',(#4930));
#4950=SURFACE_STYLE_FILL_AREA(#4940);
#4960=SURFACE_SIDE_STYLE('',(#4950));
#4970=SURFACE_STYLE_USAGE(.BOTH.,#4960);
#4980=PRESENTATION_STYLE_ASSIGNMENT((#4970));
#4990=CARTESIAN_POINT('',(0.,0.,4.));
#5000=DIRECTION('',(0.,0.,1.));
#5010=DIRECTION('',(0.,1.,0.));
#5020=AXIS2_PLACEMENT_3D('',#4990,#5000,#5010);
#5030=CYLINDRICAL_SURFACE('',#5020,11.);
#5040=EDGE_CURVE('',#2030,#2120,#2190,.T.);
#5050=ORIENTED_EDGE('',*,*,#5040,.F.);
#5060=ORIENTED_EDGE('',*,*,#2130,.T.);
#5070=ORIENTED_EDGE('',*,*,#300,.T.);
#5080=ORIENTED_EDGE('',*,*,#2040,.F.);
#5090=EDGE_LOOP('',(#5080,#5070,#5060,#5050));
#5100=FACE_OUTER_BOUND('',#5090,.T.);
#5110=ADVANCED_FACE('',(#5100),#5030,.T.);
#5120=CARTESIAN_POINT('',(0.,0.,11.5669872981078));
#5130=DIRECTION('',(0.,0.,1.));
#5140=DIRECTION('',(1.,0.,0.));
#5150=AXIS2_PLACEMENT_3D('',#5120,#5130,#5140);
#5160=CONICAL_SURFACE('',#5150,4.25,1.0471975511966);
#5170=ORIENTED_EDGE('',*,*,#4860,.F.);
#5180=ORIENTED_EDGE('',*,*,#3030,.F.);
#5190=ORIENTED_EDGE('',*,*,#2710,.T.);
#5200=ORIENTED_EDGE('',*,*,#2940,.T.);
#5210=EDGE_LOOP('',(#5200,#5190,#5180,#5170));
#5220=FACE_OUTER_BOUND('',#5210,.T.);
#5230=ADVANCED_FACE('',(#5220),#5160,.F.);
#5240=CARTESIAN_POINT('',(15.,15.,330.));
#5250=DIRECTION('',(0.,0.,-1.));
#5260=DIRECTION('',(0.,1.,0.));
#5270=AXIS2_PLACEMENT_3D('',#5240,#5250,#5260);
#5280=CYLINDRICAL_SURFACE('',#5270,3.3);
#5290=ORIENTED_EDGE('',*,*,#150,.F.);
#5300=ORIENTED_EDGE('',*,*,#3970,.F.);
#5310=ORIENTED_EDGE('',*,*,#1000,.T.);
#5320=ORIENTED_EDGE('',*,*,#3900,.T.);
#5330=EDGE_LOOP('',(#5320,#5310,#5300,#5290));
#5340=FACE_OUTER_BOUND('',#5330,.T.);
#5350=ADVANCED_FACE('',(#5340),#5280,.F.);
#5360=CARTESIAN_POINT('',(0.,0.,0.433013000000001));
#5370=DIRECTION('',(0.,0.,-1.));
#5380=DIRECTION('',(-1.,0.,0.));
#5390=AXIS2_PLACEMENT_3D('',#5360,#5370,#5380);
#5400=CONICAL_SURFACE('',#5390,4.25,1.0471975511966);
#5410=ORIENTED_EDGE('',*,*,#4830,.T.);
#5420=ORIENTED_EDGE('',*,*,#3350,.F.);
#5430=ORIENTED_EDGE('',*,*,#1300,.F.);
#5440=ORIENTED_EDGE('',*,*,#3260,.T.);
#5450=EDGE_LOOP('',(#5440,#5430,#5420,#5410));
#5460=FACE_OUTER_BOUND('',#5450,.T.);
#5470=ADVANCED_FACE('',(#5460),#5400,.F.);
#5480=CARTESIAN_POINT('',(0.,0.,12.));
#5490=DIRECTION('',(0.,0.,-1.));
#5500=DIRECTION('',(0.,-1.,0.));
#5510=AXIS2_PLACEMENT_3D('',#5480,#5490,#5500);
#5520=CONICAL_SURFACE('',#5510,10.,0.785398163397448);
#5530=ORIENTED_EDGE('',*,*,#5040,.T.);
#5540=ORIENTED_EDGE('',*,*,#2360,.T.);
#5550=ORIENTED_EDGE('',*,*,#2770,.F.);
#5560=ORIENTED_EDGE('',*,*,#2450,.F.);
#5570=EDGE_LOOP('',(#5560,#5550,#5540,#5530));
#5580=FACE_OUTER_BOUND('',#5570,.T.);
#5590=ADVANCED_FACE('',(#5580),#5520,.T.);
#5600=CLOSED_SHELL('',(#850,#1700,#1920,#2240,#2560,#2820,#3140,#3460,
#3630,#3800,#4020,#4240,#4360,#4580,#4770,#4910,#5110,#5230,#5350,#5470,
#5590));
#5610=MANIFOLD_SOLID_BREP('',#5600);
#5620=CARTESIAN_POINT('',(0.,0.,0.));
#5630=DIRECTION('',(0.,0.,1.));
#5640=DIRECTION('',(1.,0.,0.));
#5650=AXIS2_PLACEMENT_3D('',#5620,#5630,#5640);
#5660=APPLICATION_CONTEXT(' ');
#5670=APPLICATION_PROTOCOL_DEFINITION(' ','automotive_design',1998,#5660
);
#5680=PRODUCT_CONTEXT('',#5660,'mechanical');
#5690=PRODUCT_DEFINITION_CONTEXT('part definition',#5660,'design');
#5700=PRODUCT('Flansch-MMS-44_40x40-M10_44.0247_PX173794',
'Flansch-MMS-44_40x40-M10_44.0247_PX173794','',(#5680));
#5710=PRODUCT_RELATED_PRODUCT_CATEGORY('part',' ',(#5700));
#5720=PRODUCT_DEFINITION_FORMATION_WITH_SPECIFIED_SOURCE('','',#5700,
.BOUGHT.);
#5730=PRODUCT_DEFINITION('',' ',#5720,#5690);
#5740=PRODUCT_DEFINITION_SHAPE('','',#5730);
#5750=DIMENSIONAL_EXPONENTS(1.,0.,0.,0.,0.,0.,0.);
#5760=DIMENSIONAL_EXPONENTS(0.,0.,0.,0.,0.,0.,0.);
#5770=DIMENSIONAL_EXPONENTS(0.,0.,0.,0.,0.,0.,0.);
#5780=(LENGTH_UNIT() NAMED_UNIT(*) SI_UNIT(.MILLI.,.METRE.));
#5790=(NAMED_UNIT(*) PLANE_ANGLE_UNIT() SI_UNIT($,.RADIAN.));
#5800=(NAMED_UNIT(*) SI_UNIT($,.STERADIAN.) SOLID_ANGLE_UNIT());
#5810=(GEOMETRIC_REPRESENTATION_CONTEXT(3) 
GLOBAL_UNCERTAINTY_ASSIGNED_CONTEXT((#5820)) 
GLOBAL_UNIT_ASSIGNED_CONTEXT((#5780,#5790,#5800)) REPRESENTATION_CONTEXT
('',''));
#5820=UNCERTAINTY_MEASURE_WITH_UNIT(LENGTH_MEASURE(1.E-6),#5780,
'distance_accuracy_value','maximum gap value');
#5830=ADVANCED_BREP_SHAPE_REPRESENTATION('',(#5650,#5610),#5810);
#5840=SHAPE_DEFINITION_REPRESENTATION(#5740,#5830);
#5850=COLOUR_RGB('',0.690196096897125,0.886274576187134,1.);
#5860=FILL_AREA_STYLE_COLOUR('',#5850);
#5870=FILL_AREA_STYLE('',(#5860));
#5880=SURFACE_STYLE_FILL_AREA(#5870);
#5890=SURFACE_SIDE_STYLE('',(#5880));
#5900=SURFACE_STYLE_USAGE(.BOTH.,#5890);
#5910=PRESENTATION_STYLE_ASSIGNMENT((#5900));
#5920=STYLED_ITEM('',(#5910),#5610);
#5930=OVER_RIDING_STYLED_ITEM('',(#4650),#4580,#5920);
#5940=OVER_RIDING_STYLED_ITEM('',(#4980),#4910,#5920);
#5950=DRAUGHTING_MODEL('',(#5920,#5930,#5940),#5810);
#5960=CARTESIAN_POINT('',(58.4,58.4,0.));
#5970=DIRECTION('',(0.,0.,1.));
#5980=DIRECTION('',(1.,0.,0.));
#5990=AXIS2_PLACEMENT_3D('',#5960,#5970,#5980);
#6000=ITEM_DEFINED_TRANSFORMATION(
'Flansch-MMS-44_40x40-M10_44.0247_PX173794','',#5650,#5990);
#6010=APPLICATION_CONTEXT(' ');
#6020=APPLICATION_PROTOCOL_DEFINITION(' ','automotive_design',1998,#6010
);
#6030=PRODUCT_CONTEXT('',#6010,'mechanical');
#6040=PRODUCT_DEFINITION_CONTEXT('part definition',#6010,'design');
#6050=PRODUCT('Flansch-MMS-44_40x40-M10_44.0247_PX173794',
'Flansch-MMS-44_40x40-M10_44.0247_PX173794','',(#6030));
#6060=PRODUCT_RELATED_PRODUCT_CATEGORY('part',' ',(#6050));
#6070=PRODUCT_DEFINITION_FORMATION_WITH_SPECIFIED_SOURCE('','',#6050,
.BOUGHT.);
#6080=PRODUCT_DEFINITION('',' ',#6070,#6040);
#6090=PRODUCT_DEFINITION_SHAPE('','',#6080);
#6100=DIMENSIONAL_EXPONENTS(1.,0.,0.,0.,0.,0.,0.);
#6110=DIMENSIONAL_EXPONENTS(0.,0.,0.,0.,0.,0.,0.);
#6120=DIMENSIONAL_EXPONENTS(0.,0.,0.,0.,0.,0.,0.);
#6130=(LENGTH_UNIT() NAMED_UNIT(*) SI_UNIT(.MILLI.,.METRE.));
#6140=(NAMED_UNIT(*) PLANE_ANGLE_UNIT() SI_UNIT($,.RADIAN.));
#6150=(NAMED_UNIT(*) SI_UNIT($,.STERADIAN.) SOLID_ANGLE_UNIT());
#6160=(GEOMETRIC_REPRESENTATION_CONTEXT(3) 
GLOBAL_UNCERTAINTY_ASSIGNED_CONTEXT((#6170)) 
GLOBAL_UNIT_ASSIGNED_CONTEXT((#6130,#6140,#6150)) REPRESENTATION_CONTEXT
('',''));
#6170=UNCERTAINTY_MEASURE_WITH_UNIT(LENGTH_MEASURE(1.E-6),#6130,
'distance_accuracy_value','maximum gap value');
#6180=SHAPE_REPRESENTATION('',(#5650,#5990),#6160);
#6190=SHAPE_DEFINITION_REPRESENTATION(#6090,#6180);
#6200=(REPRESENTATION_RELATIONSHIP('','',#5830,#6180) 
REPRESENTATION_RELATIONSHIP_WITH_TRANSFORMATION(#6000) 
SHAPE_REPRESENTATION_RELATIONSHIP());
#6210=NEXT_ASSEMBLY_USAGE_OCCURRENCE('1','',
'Flansch-MMS-44_40x40-M10_44.0247_PX173794',#6080,#5730,'');
#6220=PRODUCT_DEFINITION_SHAPE('','',#6210);
#6230=CONTEXT_DEPENDENT_SHAPE_REPRESENTATION(#6200,#6220);
ENDSEC;
END-ISO-10303-21;
