ISO-10303-21;
HEADER;
FILE_DESCRIPTION(('Creo Elements/Direct Modeling STEP Export'),'2;1');
FILE_NAME(
'//KR-CAD2/PhoenixTemp/karl.letzgus/Konvertierung/44.0301.12_Blechkanten
schutz_Blechst\S\drke-1-2mm.stp','2022-03-21T 9:01:48',(''),(''),
'PTC Creo Elements/Direct Modeling STEP processor for AP214 (Solid Model
)',
'PTC Creo Elements/Direct Modeling 19.0C  15-Aug-2015 (C) Parametric Tec
hnology GmbH','');
FILE_SCHEMA(('AUTOMOTIVE_DESIGN { 1 0 10303 214 1 1 1 1 }'));
ENDSEC;
DATA;
#10=CARTESIAN_POINT('',(0.,0.,10.));
#20=DIRECTION('',(0.,0.,1.));
#30=DIRECTION('',(1.,0.,0.));
#40=AXIS2_PLACEMENT_3D('',#10,#20,#30);
#50=PLANE('',#40);
#60=CARTESIAN_POINT('',(3.25,6.25,10.));
#70=DIRECTION('',(0.,0.,-1.));
#80=DIRECTION('',(1.,0.,0.));
#90=AXIS2_PLACEMENT_3D('',#60,#70,#80);
#100=CIRCLE('',#90,3.25);
#110=CARTESIAN_POINT('',(0.,6.25,10.));
#120=VERTEX_POINT('',#110);
#130=CARTESIAN_POINT('',(6.5,6.25,10.));
#140=VERTEX_POINT('',#130);
#150=EDGE_CURVE('',#120,#140,#100,.T.);
#160=ORIENTED_EDGE('',*,*,#150,.F.);
#170=CARTESIAN_POINT('',(6.5,0.,10.));
#180=DIRECTION('',(0.,1.,0.));
#190=VECTOR('',#180,1.);
#200=LINE('',#170,#190);
#210=CARTESIAN_POINT('',(6.5,0.,10.));
#220=VERTEX_POINT('',#210);
#230=EDGE_CURVE('',#220,#140,#200,.T.);
#240=ORIENTED_EDGE('',*,*,#230,.T.);
#250=CARTESIAN_POINT('',(4.25,0.,10.));
#260=DIRECTION('',(1.,0.,0.));
#270=VECTOR('',#260,1.);
#280=LINE('',#250,#270);
#290=CARTESIAN_POINT('',(4.25,0.,10.));
#300=VERTEX_POINT('',#290);
#310=EDGE_CURVE('',#300,#220,#280,.T.);
#320=ORIENTED_EDGE('',*,*,#310,.T.);
#330=CARTESIAN_POINT('',(4.25,6.25,10.));
#340=DIRECTION('',(0.,-1.,0.));
#350=VECTOR('',#340,1.);
#360=LINE('',#330,#350);
#370=CARTESIAN_POINT('',(4.25,6.25,10.));
#380=VERTEX_POINT('',#370);
#390=EDGE_CURVE('',#380,#300,#360,.T.);
#400=ORIENTED_EDGE('',*,*,#390,.T.);
#410=CARTESIAN_POINT('',(3.25,6.25,10.));
#420=DIRECTION('',(0.,0.,-1.));
#430=DIRECTION('',(1.,0.,0.));
#440=AXIS2_PLACEMENT_3D('',#410,#420,#430);
#450=CIRCLE('',#440,1.);
#460=CARTESIAN_POINT('',(2.25,6.25,10.));
#470=VERTEX_POINT('',#460);
#480=EDGE_CURVE('',#470,#380,#450,.T.);
#490=ORIENTED_EDGE('',*,*,#480,.T.);
#500=CARTESIAN_POINT('',(2.25,6.25,10.));
#510=DIRECTION('',(0.,-1.,0.));
#520=VECTOR('',#510,1.);
#530=LINE('',#500,#520);
#540=CARTESIAN_POINT('',(2.25,3.75,10.));
#550=VERTEX_POINT('',#540);
#560=EDGE_CURVE('',#470,#550,#530,.T.);
#570=ORIENTED_EDGE('',*,*,#560,.F.);
#580=CARTESIAN_POINT('',(2.25,3.75,10.));
#590=DIRECTION('',(0.707106781186548,0.707106781186548,0.));
#600=VECTOR('',#590,1.);
#610=LINE('',#580,#600);
#620=CARTESIAN_POINT('',(3.6642135623731,5.1642135623731,10.));
#630=VERTEX_POINT('',#620);
#640=EDGE_CURVE('',#550,#630,#610,.T.);
#650=ORIENTED_EDGE('',*,*,#640,.F.);
#660=CARTESIAN_POINT('',(3.6642135623731,5.1642135623731,10.));
#670=DIRECTION('',(-0.46885788305379,-0.88327361870392,0.));
#680=VECTOR('',#670,1.);
#690=LINE('',#660,#680);
#700=CARTESIAN_POINT('',(2.25,2.5,10.));
#710=VERTEX_POINT('',#700);
#720=EDGE_CURVE('',#630,#710,#690,.T.);
#730=ORIENTED_EDGE('',*,*,#720,.F.);
#740=CARTESIAN_POINT('',(2.25,0.,10.));
#750=DIRECTION('',(0.,1.,0.));
#760=VECTOR('',#750,1.);
#770=LINE('',#740,#760);
#780=CARTESIAN_POINT('',(2.25,0.,10.));
#790=VERTEX_POINT('',#780);
#800=EDGE_CURVE('',#790,#710,#770,.T.);
#810=ORIENTED_EDGE('',*,*,#800,.T.);
#820=CARTESIAN_POINT('',(0.,0.,10.));
#830=DIRECTION('',(1.,0.,0.));
#840=VECTOR('',#830,1.);
#850=LINE('',#820,#840);
#860=CARTESIAN_POINT('',(0.,0.,10.));
#870=VERTEX_POINT('',#860);
#880=EDGE_CURVE('',#870,#790,#850,.T.);
#890=ORIENTED_EDGE('',*,*,#880,.T.);
#900=CARTESIAN_POINT('',(0.,6.25,10.));
#910=DIRECTION('',(0.,-1.,0.));
#920=VECTOR('',#910,1.);
#930=LINE('',#900,#920);
#940=EDGE_CURVE('',#120,#870,#930,.T.);
#950=ORIENTED_EDGE('',*,*,#940,.T.);
#960=EDGE_LOOP('',(#950,#890,#810,#730,#650,#570,#490,#400,#320,#240,
#160));
#970=FACE_OUTER_BOUND('',#960,.T.);
#980=ADVANCED_FACE('',(#970),#50,.T.);
#990=CARTESIAN_POINT('',(2.25,0.,10.));
#1000=DIRECTION('',(-0.,1.,0.));
#1010=DIRECTION('',(1.,0.,0.));
#1020=AXIS2_PLACEMENT_3D('',#990,#1000,#1010);
#1030=PLANE('',#1020);
#1040=CARTESIAN_POINT('',(0.,0.,10.));
#1050=DIRECTION('',(0.,0.,-1.));
#1060=VECTOR('',#1050,1.);
#1070=LINE('',#1040,#1060);
#1080=CARTESIAN_POINT('',(0.,0.,-90.));
#1090=VERTEX_POINT('',#1080);
#1100=EDGE_CURVE('',#870,#1090,#1070,.T.);
#1110=ORIENTED_EDGE('',*,*,#1100,.T.);
#1120=ORIENTED_EDGE('',*,*,#880,.F.);
#1130=CARTESIAN_POINT('',(2.25,0.,10.));
#1140=DIRECTION('',(0.,0.,-1.));
#1150=VECTOR('',#1140,1.);
#1160=LINE('',#1130,#1150);
#1170=CARTESIAN_POINT('',(2.25,0.,-90.));
#1180=VERTEX_POINT('',#1170);
#1190=EDGE_CURVE('',#790,#1180,#1160,.T.);
#1200=ORIENTED_EDGE('',*,*,#1190,.F.);
#1210=CARTESIAN_POINT('',(0.,0.,-90.));
#1220=DIRECTION('',(-1.,0.,0.));
#1230=VECTOR('',#1220,1.);
#1240=LINE('',#1210,#1230);
#1250=EDGE_CURVE('',#1180,#1090,#1240,.T.);
#1260=ORIENTED_EDGE('',*,*,#1250,.F.);
#1270=EDGE_LOOP('',(#1260,#1200,#1120,#1110));
#1280=FACE_OUTER_BOUND('',#1270,.T.);
#1290=ADVANCED_FACE('',(#1280),#1030,.F.);
#1300=CARTESIAN_POINT('',(6.5,6.25,10.));
#1310=DIRECTION('',(-1.,0.,0.));
#1320=DIRECTION('',(0.,1.,0.));
#1330=AXIS2_PLACEMENT_3D('',#1300,#1310,#1320);
#1340=PLANE('',#1330);
#1350=CARTESIAN_POINT('',(6.5,0.,10.));
#1360=DIRECTION('',(0.,0.,-1.));
#1370=VECTOR('',#1360,1.);
#1380=LINE('',#1350,#1370);
#1390=CARTESIAN_POINT('',(6.5,0.,-90.));
#1400=VERTEX_POINT('',#1390);
#1410=EDGE_CURVE('',#220,#1400,#1380,.T.);
#1420=ORIENTED_EDGE('',*,*,#1410,.T.);
#1430=ORIENTED_EDGE('',*,*,#230,.F.);
#1440=CARTESIAN_POINT('',(6.5,6.25,10.));
#1450=DIRECTION('',(0.,0.,-1.));
#1460=VECTOR('',#1450,1.);
#1470=LINE('',#1440,#1460);
#1480=CARTESIAN_POINT('',(6.5,6.25,-90.));
#1490=VERTEX_POINT('',#1480);
#1500=EDGE_CURVE('',#140,#1490,#1470,.T.);
#1510=ORIENTED_EDGE('',*,*,#1500,.F.);
#1520=CARTESIAN_POINT('',(6.5,0.,-90.));
#1530=DIRECTION('',(0.,-1.,0.));
#1540=VECTOR('',#1530,1.);
#1550=LINE('',#1520,#1540);
#1560=EDGE_CURVE('',#1490,#1400,#1550,.T.);
#1570=ORIENTED_EDGE('',*,*,#1560,.F.);
#1580=EDGE_LOOP('',(#1570,#1510,#1430,#1420));
#1590=FACE_OUTER_BOUND('',#1580,.T.);
#1600=ADVANCED_FACE('',(#1590),#1340,.F.);
#1610=CARTESIAN_POINT('',(0.,0.,10.));
#1620=DIRECTION('',(1.,0.,0.));
#1630=DIRECTION('',(0.,-1.,0.));
#1640=AXIS2_PLACEMENT_3D('',#1610,#1620,#1630);
#1650=PLANE('',#1640);
#1660=CARTESIAN_POINT('',(0.,6.25,10.));
#1670=DIRECTION('',(0.,0.,-1.));
#1680=VECTOR('',#1670,1.);
#1690=LINE('',#1660,#1680);
#1700=CARTESIAN_POINT('',(0.,6.25,-90.));
#1710=VERTEX_POINT('',#1700);
#1720=EDGE_CURVE('',#120,#1710,#1690,.T.);
#1730=ORIENTED_EDGE('',*,*,#1720,.T.);
#1740=ORIENTED_EDGE('',*,*,#940,.F.);
#1750=ORIENTED_EDGE('',*,*,#1100,.F.);
#1760=CARTESIAN_POINT('',(0.,0.,-90.));
#1770=DIRECTION('',(0.,1.,0.));
#1780=VECTOR('',#1770,1.);
#1790=LINE('',#1760,#1780);
#1800=EDGE_CURVE('',#1090,#1710,#1790,.T.);
#1810=ORIENTED_EDGE('',*,*,#1800,.F.);
#1820=EDGE_LOOP('',(#1810,#1750,#1740,#1730));
#1830=FACE_OUTER_BOUND('',#1820,.T.);
#1840=ADVANCED_FACE('',(#1830),#1650,.F.);
#1850=CARTESIAN_POINT('',(4.25,0.,10.));
#1860=DIRECTION('',(1.,0.,0.));
#1870=DIRECTION('',(0.,-1.,0.));
#1880=AXIS2_PLACEMENT_3D('',#1850,#1860,#1870);
#1890=PLANE('',#1880);
#1900=CARTESIAN_POINT('',(4.25,6.25,10.));
#1910=DIRECTION('',(0.,0.,-1.));
#1920=VECTOR('',#1910,1.);
#1930=LINE('',#1900,#1920);
#1940=CARTESIAN_POINT('',(4.25,6.25,-90.));
#1950=VERTEX_POINT('',#1940);
#1960=EDGE_CURVE('',#380,#1950,#1930,.T.);
#1970=ORIENTED_EDGE('',*,*,#1960,.T.);
#1980=ORIENTED_EDGE('',*,*,#390,.F.);
#1990=CARTESIAN_POINT('',(4.25,0.,10.));
#2000=DIRECTION('',(0.,0.,-1.));
#2010=VECTOR('',#2000,1.);
#2020=LINE('',#1990,#2010);
#2030=CARTESIAN_POINT('',(4.25,0.,-90.));
#2040=VERTEX_POINT('',#2030);
#2050=EDGE_CURVE('',#300,#2040,#2020,.T.);
#2060=ORIENTED_EDGE('',*,*,#2050,.F.);
#2070=CARTESIAN_POINT('',(4.25,0.,-90.));
#2080=DIRECTION('',(0.,1.,0.));
#2090=VECTOR('',#2080,1.);
#2100=LINE('',#2070,#2090);
#2110=EDGE_CURVE('',#2040,#1950,#2100,.T.);
#2120=ORIENTED_EDGE('',*,*,#2110,.F.);
#2130=EDGE_LOOP('',(#2120,#2060,#1980,#1970));
#2140=FACE_OUTER_BOUND('',#2130,.T.);
#2150=ADVANCED_FACE('',(#2140),#1890,.F.);
#2160=CARTESIAN_POINT('',(3.25,6.25,10.));
#2170=DIRECTION('',(0.,0.,-1.));
#2180=DIRECTION('',(1.,0.,0.));
#2190=AXIS2_PLACEMENT_3D('',#2160,#2170,#2180);
#2200=CYLINDRICAL_SURFACE('',#2190,1.);
#2210=CARTESIAN_POINT('',(2.25,6.25,10.));
#2220=DIRECTION('',(0.,0.,-1.));
#2230=VECTOR('',#2220,1.);
#2240=LINE('',#2210,#2230);
#2250=CARTESIAN_POINT('',(2.25,6.25,-90.));
#2260=VERTEX_POINT('',#2250);
#2270=EDGE_CURVE('',#470,#2260,#2240,.T.);
#2280=ORIENTED_EDGE('',*,*,#2270,.T.);
#2290=ORIENTED_EDGE('',*,*,#480,.F.);
#2300=ORIENTED_EDGE('',*,*,#1960,.F.);
#2310=CARTESIAN_POINT('',(3.25,6.25,-90.));
#2320=DIRECTION('',(0.,0.,-1.));
#2330=DIRECTION('',(1.,0.,0.));
#2340=AXIS2_PLACEMENT_3D('',#2310,#2320,#2330);
#2350=CIRCLE('',#2340,1.);
#2360=EDGE_CURVE('',#2260,#1950,#2350,.T.);
#2370=ORIENTED_EDGE('',*,*,#2360,.T.);
#2380=EDGE_LOOP('',(#2370,#2300,#2290,#2280));
#2390=FACE_OUTER_BOUND('',#2380,.T.);
#2400=ADVANCED_FACE('',(#2390),#2200,.F.);
#2410=CARTESIAN_POINT('',(3.25,6.25,10.));
#2420=DIRECTION('',(0.,0.,-1.));
#2430=DIRECTION('',(1.,0.,0.));
#2440=AXIS2_PLACEMENT_3D('',#2410,#2420,#2430);
#2450=CYLINDRICAL_SURFACE('',#2440,3.25);
#2460=ORIENTED_EDGE('',*,*,#1500,.T.);
#2470=ORIENTED_EDGE('',*,*,#150,.T.);
#2480=ORIENTED_EDGE('',*,*,#1720,.F.);
#2490=CARTESIAN_POINT('',(3.25,6.25,-90.));
#2500=DIRECTION('',(0.,0.,-1.));
#2510=DIRECTION('',(1.,0.,0.));
#2520=AXIS2_PLACEMENT_3D('',#2490,#2500,#2510);
#2530=CIRCLE('',#2520,3.25);
#2540=EDGE_CURVE('',#1710,#1490,#2530,.T.);
#2550=ORIENTED_EDGE('',*,*,#2540,.F.);
#2560=EDGE_LOOP('',(#2550,#2480,#2470,#2460));
#2570=FACE_OUTER_BOUND('',#2560,.T.);
#2580=ADVANCED_FACE('',(#2570),#2450,.T.);
#2590=CARTESIAN_POINT('',(2.25,2.5,10.));
#2600=DIRECTION('',(-1.,0.,0.));
#2610=DIRECTION('',(0.,1.,0.));
#2620=AXIS2_PLACEMENT_3D('',#2590,#2600,#2610);
#2630=PLANE('',#2620);
#2640=ORIENTED_EDGE('',*,*,#1190,.T.);
#2650=ORIENTED_EDGE('',*,*,#800,.F.);
#2660=CARTESIAN_POINT('',(2.25,2.5,10.));
#2670=DIRECTION('',(0.,0.,-1.));
#2680=VECTOR('',#2670,1.);
#2690=LINE('',#2660,#2680);
#2700=CARTESIAN_POINT('',(2.25,2.5,-90.));
#2710=VERTEX_POINT('',#2700);
#2720=EDGE_CURVE('',#710,#2710,#2690,.T.);
#2730=ORIENTED_EDGE('',*,*,#2720,.F.);
#2740=CARTESIAN_POINT('',(2.25,0.,-90.));
#2750=DIRECTION('',(0.,-1.,0.));
#2760=VECTOR('',#2750,1.);
#2770=LINE('',#2740,#2760);
#2780=EDGE_CURVE('',#2710,#1180,#2770,.T.);
#2790=ORIENTED_EDGE('',*,*,#2780,.F.);
#2800=EDGE_LOOP('',(#2790,#2730,#2650,#2640));
#2810=FACE_OUTER_BOUND('',#2800,.T.);
#2820=ADVANCED_FACE('',(#2810),#2630,.F.);
#2830=CARTESIAN_POINT('',(3.6642135623731,5.1642135623731,10.));
#2840=DIRECTION('',(-0.88327361870392,0.46885788305379,0.));
#2850=DIRECTION('',(0.46885788305379,0.88327361870392,0.));
#2860=AXIS2_PLACEMENT_3D('',#2830,#2840,#2850);
#2870=PLANE('',#2860);
#2880=ORIENTED_EDGE('',*,*,#2720,.T.);
#2890=ORIENTED_EDGE('',*,*,#720,.T.);
#2900=CARTESIAN_POINT('',(3.6642135623731,5.1642135623731,10.));
#2910=DIRECTION('',(0.,0.,-1.));
#2920=VECTOR('',#2910,1.);
#2930=LINE('',#2900,#2920);
#2940=CARTESIAN_POINT('',(3.6642135623731,5.1642135623731,-90.));
#2950=VERTEX_POINT('',#2940);
#2960=EDGE_CURVE('',#630,#2950,#2930,.T.);
#2970=ORIENTED_EDGE('',*,*,#2960,.F.);
#2980=CARTESIAN_POINT('',(0.922954016950679,0.,-90.));
#2990=DIRECTION('',(-0.46885788305379,-0.88327361870392,0.));
#3000=VECTOR('',#2990,1.);
#3010=LINE('',#2980,#3000);
#3020=EDGE_CURVE('',#2950,#2710,#3010,.T.);
#3030=ORIENTED_EDGE('',*,*,#3020,.F.);
#3040=EDGE_LOOP('',(#3030,#2970,#2890,#2880));
#3050=FACE_OUTER_BOUND('',#3040,.T.);
#3060=ADVANCED_FACE('',(#3050),#2870,.F.);
#3070=CARTESIAN_POINT('',(6.5,0.,10.));
#3080=DIRECTION('',(-0.,1.,0.));
#3090=DIRECTION('',(1.,0.,0.));
#3100=AXIS2_PLACEMENT_3D('',#3070,#3080,#3090);
#3110=PLANE('',#3100);
#3120=ORIENTED_EDGE('',*,*,#2050,.T.);
#3130=ORIENTED_EDGE('',*,*,#310,.F.);
#3140=ORIENTED_EDGE('',*,*,#1410,.F.);
#3150=CARTESIAN_POINT('',(0.,0.,-90.));
#3160=DIRECTION('',(-1.,0.,0.));
#3170=VECTOR('',#3160,1.);
#3180=LINE('',#3150,#3170);
#3190=EDGE_CURVE('',#1400,#2040,#3180,.T.);
#3200=ORIENTED_EDGE('',*,*,#3190,.F.);
#3210=EDGE_LOOP('',(#3200,#3140,#3130,#3120));
#3220=FACE_OUTER_BOUND('',#3210,.T.);
#3230=ADVANCED_FACE('',(#3220),#3110,.F.);
#3240=CARTESIAN_POINT('',(2.25,6.25,10.));
#3250=DIRECTION('',(-1.,0.,0.));
#3260=DIRECTION('',(0.,1.,0.));
#3270=AXIS2_PLACEMENT_3D('',#3240,#3250,#3260);
#3280=PLANE('',#3270);
#3290=CARTESIAN_POINT('',(2.25,3.75,10.));
#3300=DIRECTION('',(0.,0.,-1.));
#3310=VECTOR('',#3300,1.);
#3320=LINE('',#3290,#3310);
#3330=CARTESIAN_POINT('',(2.25,3.75,-90.));
#3340=VERTEX_POINT('',#3330);
#3350=EDGE_CURVE('',#550,#3340,#3320,.T.);
#3360=ORIENTED_EDGE('',*,*,#3350,.T.);
#3370=ORIENTED_EDGE('',*,*,#560,.T.);
#3380=ORIENTED_EDGE('',*,*,#2270,.F.);
#3390=CARTESIAN_POINT('',(2.25,0.,-90.));
#3400=DIRECTION('',(0.,-1.,0.));
#3410=VECTOR('',#3400,1.);
#3420=LINE('',#3390,#3410);
#3430=EDGE_CURVE('',#2260,#3340,#3420,.T.);
#3440=ORIENTED_EDGE('',*,*,#3430,.F.);
#3450=EDGE_LOOP('',(#3440,#3380,#3370,#3360));
#3460=FACE_OUTER_BOUND('',#3450,.T.);
#3470=ADVANCED_FACE('',(#3460),#3280,.F.);
#3480=CARTESIAN_POINT('',(2.25,3.75,10.));
#3490=DIRECTION('',(0.707106781186548,-0.707106781186548,0.));
#3500=DIRECTION('',(-0.707106781186548,-0.707106781186548,0.));
#3510=AXIS2_PLACEMENT_3D('',#3480,#3490,#3500);
#3520=PLANE('',#3510);
#3530=ORIENTED_EDGE('',*,*,#2960,.T.);
#3540=ORIENTED_EDGE('',*,*,#640,.T.);
#3550=ORIENTED_EDGE('',*,*,#3350,.F.);
#3560=CARTESIAN_POINT('',(-1.5,0.,-90.));
#3570=DIRECTION('',(0.707106781186548,0.707106781186548,0.));
#3580=VECTOR('',#3570,1.);
#3590=LINE('',#3560,#3580);
#3600=EDGE_CURVE('',#3340,#2950,#3590,.T.);
#3610=ORIENTED_EDGE('',*,*,#3600,.F.);
#3620=EDGE_LOOP('',(#3610,#3550,#3540,#3530));
#3630=FACE_OUTER_BOUND('',#3620,.T.);
#3640=ADVANCED_FACE('',(#3630),#3520,.F.);
#3650=CARTESIAN_POINT('',(0.,0.,-90.));
#3660=DIRECTION('',(0.,0.,1.));
#3670=DIRECTION('',(1.,0.,0.));
#3680=AXIS2_PLACEMENT_3D('',#3650,#3660,#3670);
#3690=PLANE('',#3680);
#3700=ORIENTED_EDGE('',*,*,#1800,.T.);
#3710=ORIENTED_EDGE('',*,*,#1250,.T.);
#3720=ORIENTED_EDGE('',*,*,#2780,.T.);
#3730=ORIENTED_EDGE('',*,*,#3020,.T.);
#3740=ORIENTED_EDGE('',*,*,#3600,.T.);
#3750=ORIENTED_EDGE('',*,*,#3430,.T.);
#3760=ORIENTED_EDGE('',*,*,#2360,.F.);
#3770=ORIENTED_EDGE('',*,*,#2110,.T.);
#3780=ORIENTED_EDGE('',*,*,#3190,.T.);
#3790=ORIENTED_EDGE('',*,*,#1560,.T.);
#3800=ORIENTED_EDGE('',*,*,#2540,.T.);
#3810=EDGE_LOOP('',(#3800,#3790,#3780,#3770,#3760,#3750,#3740,#3730,
#3720,#3710,#3700));
#3820=FACE_OUTER_BOUND('',#3810,.T.);
#3830=ADVANCED_FACE('',(#3820),#3690,.F.);
#3840=CLOSED_SHELL('',(#980,#1290,#1600,#1840,#2150,#2400,#2580,#2820,
#3060,#3230,#3470,#3640,#3830));
#3850=MANIFOLD_SOLID_BREP('',#3840);
#3860=CARTESIAN_POINT('',(0.,0.,0.));
#3870=DIRECTION('',(0.,0.,1.));
#3880=DIRECTION('',(1.,0.,0.));
#3890=AXIS2_PLACEMENT_3D('',#3860,#3870,#3880);
#3900=APPLICATION_CONTEXT(' ');
#3910=APPLICATION_PROTOCOL_DEFINITION(' ','automotive_design',1998,#3900
);
#3920=PRODUCT_CONTEXT('',#3900,'mechanical');
#3930=PRODUCT_DEFINITION_CONTEXT('part definition',#3900,'design');
#3940=PRODUCT(
'Blechkantenschutz_Blechst\S\drke-1-2mm_44.0301.12_PX175400',
'Blechkantenschutz_Blechst\S\drke-1-2mm_44.0301.12_PX175400','',(#3920))
;
#3950=PRODUCT_RELATED_PRODUCT_CATEGORY('part',' ',(#3940));
#3960=PRODUCT_DEFINITION_FORMATION_WITH_SPECIFIED_SOURCE('','',#3940,
.BOUGHT.);
#3970=PRODUCT_DEFINITION('',' ',#3960,#3930);
#3980=PRODUCT_DEFINITION_SHAPE('','',#3970);
#3990=DIMENSIONAL_EXPONENTS(1.,0.,0.,0.,0.,0.,0.);
#4000=DIMENSIONAL_EXPONENTS(0.,0.,0.,0.,0.,0.,0.);
#4010=DIMENSIONAL_EXPONENTS(0.,0.,0.,0.,0.,0.,0.);
#4020=(LENGTH_UNIT() NAMED_UNIT(*) SI_UNIT(.MILLI.,.METRE.));
#4030=(NAMED_UNIT(*) PLANE_ANGLE_UNIT() SI_UNIT($,.RADIAN.));
#4040=(NAMED_UNIT(*) SI_UNIT($,.STERADIAN.) SOLID_ANGLE_UNIT());
#4050=(GEOMETRIC_REPRESENTATION_CONTEXT(3) 
GLOBAL_UNCERTAINTY_ASSIGNED_CONTEXT((#4060)) 
GLOBAL_UNIT_ASSIGNED_CONTEXT((#4020,#4030,#4040)) REPRESENTATION_CONTEXT
('',''));
#4060=UNCERTAINTY_MEASURE_WITH_UNIT(LENGTH_MEASURE(1.E-6),#4020,
'distance_accuracy_value','maximum gap value');
#4070=ADVANCED_BREP_SHAPE_REPRESENTATION('',(#3890,#3850),#4050);
#4080=SHAPE_DEFINITION_REPRESENTATION(#3980,#4070);
#4090=COLOUR_RGB('',0.0823529437184334,0.0862745121121407,
0.0980392247438431);
#4100=FILL_AREA_STYLE_COLOUR('',#4090);
#4110=FILL_AREA_STYLE('',(#4100));
#4120=SURFACE_STYLE_FILL_AREA(#4110);
#4130=SURFACE_SIDE_STYLE('',(#4120));
#4140=SURFACE_STYLE_USAGE(.BOTH.,#4130);
#4150=PRESENTATION_STYLE_ASSIGNMENT((#4140));
#4160=STYLED_ITEM('',(#4150),#3850);
#4170=DRAUGHTING_MODEL('',(#4160),#4050);
#4180=CARTESIAN_POINT('',(0.,0.,90.));
#4190=DIRECTION('',(0.,0.,1.));
#4200=DIRECTION('',(1.,0.,0.));
#4210=AXIS2_PLACEMENT_3D('',#4180,#4190,#4200);
#4220=ITEM_DEFINED_TRANSFORMATION(
'Blechkantenschutz_Blechst\S\drke-1-2mm_44.0301.12_PX175400','',#3890,
#4210);
#4230=APPLICATION_CONTEXT(' ');
#4240=APPLICATION_PROTOCOL_DEFINITION(' ','automotive_design',1998,#4230
);
#4250=PRODUCT_CONTEXT('',#4230,'mechanical');
#4260=PRODUCT_DEFINITION_CONTEXT('part definition',#4230,'design');
#4270=PRODUCT(
'Blechkantenschutz_Blechst\S\drke-1-2mm_44.0301.12_PX175400',
'Blechkantenschutz_Blechst\S\drke-1-2mm_44.0301.12_PX175400','',(#4250))
;
#4280=PRODUCT_RELATED_PRODUCT_CATEGORY('part',' ',(#4270));
#4290=PRODUCT_DEFINITION_FORMATION_WITH_SPECIFIED_SOURCE('','',#4270,
.BOUGHT.);
#4300=PRODUCT_DEFINITION('',' ',#4290,#4260);
#4310=PRODUCT_DEFINITION_SHAPE('','',#4300);
#4320=DIMENSIONAL_EXPONENTS(1.,0.,0.,0.,0.,0.,0.);
#4330=DIMENSIONAL_EXPONENTS(0.,0.,0.,0.,0.,0.,0.);
#4340=DIMENSIONAL_EXPONENTS(0.,0.,0.,0.,0.,0.,0.);
#4350=(LENGTH_UNIT() NAMED_UNIT(*) SI_UNIT(.MILLI.,.METRE.));
#4360=(NAMED_UNIT(*) PLANE_ANGLE_UNIT() SI_UNIT($,.RADIAN.));
#4370=(NAMED_UNIT(*) SI_UNIT($,.STERADIAN.) SOLID_ANGLE_UNIT());
#4380=(GEOMETRIC_REPRESENTATION_CONTEXT(3) 
GLOBAL_UNCERTAINTY_ASSIGNED_CONTEXT((#4390)) 
GLOBAL_UNIT_ASSIGNED_CONTEXT((#4350,#4360,#4370)) REPRESENTATION_CONTEXT
('',''));
#4390=UNCERTAINTY_MEASURE_WITH_UNIT(LENGTH_MEASURE(1.E-6),#4350,
'distance_accuracy_value','maximum gap value');
#4400=SHAPE_REPRESENTATION('',(#3890,#4210),#4380);
#4410=SHAPE_DEFINITION_REPRESENTATION(#4310,#4400);
#4420=(REPRESENTATION_RELATIONSHIP('','',#4070,#4400) 
REPRESENTATION_RELATIONSHIP_WITH_TRANSFORMATION(#4220) 
SHAPE_REPRESENTATION_RELATIONSHIP());
#4430=NEXT_ASSEMBLY_USAGE_OCCURRENCE('1','',
'Blechkantenschutz_Blechst\S\drke-1-2mm_44.0301.12_PX175400',#4300,#3970
,'');
#4440=PRODUCT_DEFINITION_SHAPE('','',#4430);
#4450=CONTEXT_DEPENDENT_SHAPE_REPRESENTATION(#4420,#4440);
ENDSEC;
END-ISO-10303-21;
