ISO-10303-21;
HEADER;
FILE_DESCRIPTION(('Creo Elements/Direct Modeling STEP Export'),'2;1');
FILE_NAME(
'//KR-CAD2/PhoenixTemp/karl.letzgus/Konvertierung/44.0301.4_Profilabdeck
ung-Flach-MMS-44_40x5-schwarz-leitf\S\dhig.stp','2022-03-21T 9:01:20',(
''),(''),
'PTC Creo Elements/Direct Modeling STEP processor for AP214 (Solid Model
)',
'PTC Creo Elements/Direct Modeling 19.0C  15-Aug-2015 (C) Parametric Tec
hnology GmbH','');
FILE_SCHEMA(('AUTOMOTIVE_DESIGN { 1 0 10303 214 1 1 1 1 }'));
ENDSEC;
DATA;
#10=CARTESIAN_POINT('',(0.,0.,0.));
#20=DIRECTION('',(0.,0.,1.));
#30=DIRECTION('',(1.,0.,0.));
#40=AXIS2_PLACEMENT_3D('',#10,#20,#30);
#50=PLANE('',#40);
#60=CARTESIAN_POINT('',(-14.84052,-7.15428000000003,0.));
#70=DIRECTION('',(-1.,0.,0.));
#80=VECTOR('',#70,1.);
#90=LINE('',#60,#80);
#100=CARTESIAN_POINT('',(-17.84052,-7.15428,0.));
#110=VERTEX_POINT('',#100);
#120=CARTESIAN_POINT('',(-18.28111893,-7.15428000000003,0.));
#130=VERTEX_POINT('',#120);
#140=EDGE_CURVE('',#110,#130,#90,.T.);
#150=ORIENTED_EDGE('',*,*,#140,.T.);
#160=CARTESIAN_POINT('',(-17.84052,-1.15428,0.));
#170=DIRECTION('',(0.,1.,0.));
#180=VECTOR('',#170,1.);
#190=LINE('',#160,#180);
#200=CARTESIAN_POINT('',(-17.84052,-0.15428,0.));
#210=VERTEX_POINT('',#200);
#220=EDGE_CURVE('',#110,#210,#190,.T.);
#230=ORIENTED_EDGE('',*,*,#220,.F.);
#240=CARTESIAN_POINT('',(-14.84052,-0.15428,0.));
#250=DIRECTION('',(1.,0.,0.));
#260=VECTOR('',#250,1.);
#270=LINE('',#240,#260);
#280=CARTESIAN_POINT('',(-11.84052,-0.15428,0.));
#290=VERTEX_POINT('',#280);
#300=EDGE_CURVE('',#210,#290,#270,.T.);
#310=ORIENTED_EDGE('',*,*,#300,.F.);
#320=CARTESIAN_POINT('',(-11.84052,-1.15428,0.));
#330=DIRECTION('',(0.,-1.,0.));
#340=VECTOR('',#330,1.);
#350=LINE('',#320,#340);
#360=CARTESIAN_POINT('',(-11.84052,-7.15428,0.));
#370=VERTEX_POINT('',#360);
#380=EDGE_CURVE('',#290,#370,#350,.T.);
#390=ORIENTED_EDGE('',*,*,#380,.F.);
#400=CARTESIAN_POINT('',(-14.84052,-7.15428000000003,0.));
#410=DIRECTION('',(-1.,0.,0.));
#420=VECTOR('',#410,1.);
#430=LINE('',#400,#420);
#440=CARTESIAN_POINT('',(-11.39992108,-7.15428000000003,0.));
#450=VERTEX_POINT('',#440);
#460=EDGE_CURVE('',#450,#370,#430,.T.);
#470=ORIENTED_EDGE('',*,*,#460,.T.);
#480=CARTESIAN_POINT('',(-7.93581945999998,-1.15428,0.));
#490=DIRECTION('',(-0.500000000526354,-0.866025403480548,0.));
#500=VECTOR('',#490,1.);
#510=LINE('',#480,#500);
#520=CARTESIAN_POINT('',(-9.09052,-3.15428000000003,0.));
#530=VERTEX_POINT('',#520);
#540=EDGE_CURVE('',#530,#450,#510,.T.);
#550=ORIENTED_EDGE('',*,*,#540,.T.);
#560=CARTESIAN_POINT('',(-14.84052,-3.15428000000003,0.));
#570=DIRECTION('',(1.,0.,0.));
#580=VECTOR('',#570,1.);
#590=LINE('',#560,#580);
#600=CARTESIAN_POINT('',(-9.74052,-3.15428000000003,0.));
#610=VERTEX_POINT('',#600);
#620=EDGE_CURVE('',#610,#530,#590,.T.);
#630=ORIENTED_EDGE('',*,*,#620,.T.);
#640=CARTESIAN_POINT('',(-9.74052,-1.15428,0.));
#650=DIRECTION('',(0.,-1.,0.));
#660=VECTOR('',#650,1.);
#670=LINE('',#640,#660);
#680=CARTESIAN_POINT('',(-9.74052,-1.15428,0.));
#690=VERTEX_POINT('',#680);
#700=EDGE_CURVE('',#690,#610,#670,.T.);
#710=ORIENTED_EDGE('',*,*,#700,.T.);
#720=CARTESIAN_POINT('',(-14.84052,-1.15428,0.));
#730=DIRECTION('',(1.,0.,0.));
#740=VECTOR('',#730,1.);
#750=LINE('',#720,#740);
#760=CARTESIAN_POINT('',(3.65948000000001,-1.15428,0.));
#770=VERTEX_POINT('',#760);
#780=EDGE_CURVE('',#690,#770,#750,.T.);
#790=ORIENTED_EDGE('',*,*,#780,.F.);
#800=CARTESIAN_POINT('',(3.65948000000001,-2.65427999999999,0.));
#810=DIRECTION('',(0.,0.,1.));
#820=DIRECTION('',(-1.,0.,0.));
#830=AXIS2_PLACEMENT_3D('',#800,#810,#820);
#840=CIRCLE('',#830,1.5);
#850=CARTESIAN_POINT('',(5.15948000000001,-2.65428,0.));
#860=VERTEX_POINT('',#850);
#870=EDGE_CURVE('',#860,#770,#840,.T.);
#880=ORIENTED_EDGE('',*,*,#870,.T.);
#890=CARTESIAN_POINT('',(5.15948,-1.15428,0.));
#900=DIRECTION('',(0.,1.,0.));
#910=VECTOR('',#900,1.);
#920=LINE('',#890,#910);
#930=CARTESIAN_POINT('',(5.15948000000001,2.34572,0.));
#940=VERTEX_POINT('',#930);
#950=EDGE_CURVE('',#860,#940,#920,.T.);
#960=ORIENTED_EDGE('',*,*,#950,.F.);
#970=CARTESIAN_POINT('',(3.65948,2.34572,0.));
#980=DIRECTION('',(0.,0.,1.));
#990=DIRECTION('',(-1.,0.,0.));
#1000=AXIS2_PLACEMENT_3D('',#970,#980,#990);
#1010=CIRCLE('',#1000,1.5);
#1020=CARTESIAN_POINT('',(3.65948000000001,3.84572,0.));
#1030=VERTEX_POINT('',#1020);
#1040=EDGE_CURVE('',#940,#1030,#1010,.T.);
#1050=ORIENTED_EDGE('',*,*,#1040,.F.);
#1060=CARTESIAN_POINT('',(-14.84052,3.84572,0.));
#1070=DIRECTION('',(-1.,0.,0.));
#1080=VECTOR('',#1070,1.);
#1090=LINE('',#1060,#1080);
#1100=CARTESIAN_POINT('',(-33.34052,3.84572000000001,0.));
#1110=VERTEX_POINT('',#1100);
#1120=EDGE_CURVE('',#1030,#1110,#1090,.T.);
#1130=ORIENTED_EDGE('',*,*,#1120,.F.);
#1140=CARTESIAN_POINT('',(-33.34052,2.34572,0.));
#1150=DIRECTION('',(0.,0.,1.));
#1160=DIRECTION('',(1.,0.,0.));
#1170=AXIS2_PLACEMENT_3D('',#1140,#1150,#1160);
#1180=CIRCLE('',#1170,1.5);
#1190=CARTESIAN_POINT('',(-34.84052,2.34572000000001,0.));
#1200=VERTEX_POINT('',#1190);
#1210=EDGE_CURVE('',#1110,#1200,#1180,.T.);
#1220=ORIENTED_EDGE('',*,*,#1210,.F.);
#1230=CARTESIAN_POINT('',(-34.84052,-1.15428,0.));
#1240=DIRECTION('',(0.,-1.,0.));
#1250=VECTOR('',#1240,1.);
#1260=LINE('',#1230,#1250);
#1270=CARTESIAN_POINT('',(-34.84052,-2.65427999999999,0.));
#1280=VERTEX_POINT('',#1270);
#1290=EDGE_CURVE('',#1200,#1280,#1260,.T.);
#1300=ORIENTED_EDGE('',*,*,#1290,.F.);
#1310=CARTESIAN_POINT('',(-33.34052,-2.65428,0.));
#1320=DIRECTION('',(0.,0.,1.));
#1330=DIRECTION('',(1.,0.,0.));
#1340=AXIS2_PLACEMENT_3D('',#1310,#1320,#1330);
#1350=CIRCLE('',#1340,1.5);
#1360=CARTESIAN_POINT('',(-33.34052,-1.15427999999999,0.));
#1370=VERTEX_POINT('',#1360);
#1380=EDGE_CURVE('',#1370,#1280,#1350,.T.);
#1390=ORIENTED_EDGE('',*,*,#1380,.T.);
#1400=CARTESIAN_POINT('',(-14.84052,-1.15428,0.));
#1410=DIRECTION('',(1.,0.,0.));
#1420=VECTOR('',#1410,1.);
#1430=LINE('',#1400,#1420);
#1440=CARTESIAN_POINT('',(-19.940520007,-1.15428000000013,0.));
#1450=VERTEX_POINT('',#1440);
#1460=EDGE_CURVE('',#1370,#1450,#1430,.T.);
#1470=ORIENTED_EDGE('',*,*,#1460,.F.);
#1480=CARTESIAN_POINT('',(-19.940520007,-1.15428,0.));
#1490=DIRECTION('',(0.,1.,0.));
#1500=VECTOR('',#1490,1.);
#1510=LINE('',#1480,#1500);
#1520=CARTESIAN_POINT('',(-19.940520007,-3.15428000000008,0.));
#1530=VERTEX_POINT('',#1520);
#1540=EDGE_CURVE('',#1530,#1450,#1510,.T.);
#1550=ORIENTED_EDGE('',*,*,#1540,.T.);
#1560=CARTESIAN_POINT('',(-14.84052,-3.15428000000008,0.));
#1570=DIRECTION('',(1.,0.,0.));
#1580=VECTOR('',#1570,1.);
#1590=LINE('',#1560,#1580);
#1600=CARTESIAN_POINT('',(-20.590520007,-3.15428000000008,0.));
#1610=VERTEX_POINT('',#1600);
#1620=EDGE_CURVE('',#1610,#1530,#1590,.T.);
#1630=ORIENTED_EDGE('',*,*,#1620,.T.);
#1640=CARTESIAN_POINT('',(-21.7452205455001,-1.15428,0.));
#1650=DIRECTION('',(-0.50000000003922,0.866025403761795,0.));
#1660=VECTOR('',#1650,1.);
#1670=LINE('',#1640,#1660);
#1680=EDGE_CURVE('',#130,#1610,#1670,.T.);
#1690=ORIENTED_EDGE('',*,*,#1680,.T.);
#1700=EDGE_LOOP('',(#1690,#1630,#1550,#1470,#1390,#1300,#1220,#1130,
#1050,#960,#880,#790,#710,#630,#550,#470,#390,#310,#230,#150));
#1710=FACE_OUTER_BOUND('',#1700,.T.);
#1720=ADVANCED_FACE('',(#1710),#50,.F.);
#1730=CARTESIAN_POINT('',(0.,0.,100.));
#1740=DIRECTION('',(0.,0.,1.));
#1750=DIRECTION('',(1.,0.,0.));
#1760=AXIS2_PLACEMENT_3D('',#1730,#1740,#1750);
#1770=PLANE('',#1760);
#1780=CARTESIAN_POINT('',(-21.7452205455001,-1.15428,100.));
#1790=DIRECTION('',(-0.50000000003922,0.866025403761795,0.));
#1800=VECTOR('',#1790,1.);
#1810=LINE('',#1780,#1800);
#1820=CARTESIAN_POINT('',(-18.28111893,-7.15428000000003,100.));
#1830=VERTEX_POINT('',#1820);
#1840=CARTESIAN_POINT('',(-20.590520007,-3.15428000000008,100.));
#1850=VERTEX_POINT('',#1840);
#1860=EDGE_CURVE('',#1830,#1850,#1810,.T.);
#1870=ORIENTED_EDGE('',*,*,#1860,.F.);
#1880=CARTESIAN_POINT('',(-14.84052,-3.15428000000008,100.));
#1890=DIRECTION('',(1.,0.,0.));
#1900=VECTOR('',#1890,1.);
#1910=LINE('',#1880,#1900);
#1920=CARTESIAN_POINT('',(-19.940520007,-3.15428000000008,100.));
#1930=VERTEX_POINT('',#1920);
#1940=EDGE_CURVE('',#1850,#1930,#1910,.T.);
#1950=ORIENTED_EDGE('',*,*,#1940,.F.);
#1960=CARTESIAN_POINT('',(-19.940520007,-1.15428,100.));
#1970=DIRECTION('',(0.,1.,0.));
#1980=VECTOR('',#1970,1.);
#1990=LINE('',#1960,#1980);
#2000=CARTESIAN_POINT('',(-19.940520007,-1.15428000000013,100.));
#2010=VERTEX_POINT('',#2000);
#2020=EDGE_CURVE('',#1930,#2010,#1990,.T.);
#2030=ORIENTED_EDGE('',*,*,#2020,.F.);
#2040=CARTESIAN_POINT('',(-14.84052,-1.15428,100.));
#2050=DIRECTION('',(1.,0.,0.));
#2060=VECTOR('',#2050,1.);
#2070=LINE('',#2040,#2060);
#2080=CARTESIAN_POINT('',(-33.34052,-1.15427999999999,100.));
#2090=VERTEX_POINT('',#2080);
#2100=EDGE_CURVE('',#2090,#2010,#2070,.T.);
#2110=ORIENTED_EDGE('',*,*,#2100,.T.);
#2120=CARTESIAN_POINT('',(-33.34052,-2.65428,100.));
#2130=DIRECTION('',(0.,0.,1.));
#2140=DIRECTION('',(1.,0.,0.));
#2150=AXIS2_PLACEMENT_3D('',#2120,#2130,#2140);
#2160=CIRCLE('',#2150,1.5);
#2170=CARTESIAN_POINT('',(-34.84052,-2.65427999999999,100.));
#2180=VERTEX_POINT('',#2170);
#2190=EDGE_CURVE('',#2090,#2180,#2160,.T.);
#2200=ORIENTED_EDGE('',*,*,#2190,.F.);
#2210=CARTESIAN_POINT('',(-34.84052,-1.15428,100.));
#2220=DIRECTION('',(0.,-1.,0.));
#2230=VECTOR('',#2220,1.);
#2240=LINE('',#2210,#2230);
#2250=CARTESIAN_POINT('',(-34.84052,2.34572000000001,100.));
#2260=VERTEX_POINT('',#2250);
#2270=EDGE_CURVE('',#2260,#2180,#2240,.T.);
#2280=ORIENTED_EDGE('',*,*,#2270,.T.);
#2290=CARTESIAN_POINT('',(-33.34052,2.34572,100.));
#2300=DIRECTION('',(0.,0.,1.));
#2310=DIRECTION('',(1.,0.,0.));
#2320=AXIS2_PLACEMENT_3D('',#2290,#2300,#2310);
#2330=CIRCLE('',#2320,1.5);
#2340=CARTESIAN_POINT('',(-33.34052,3.84572000000001,100.));
#2350=VERTEX_POINT('',#2340);
#2360=EDGE_CURVE('',#2350,#2260,#2330,.T.);
#2370=ORIENTED_EDGE('',*,*,#2360,.T.);
#2380=CARTESIAN_POINT('',(-14.84052,3.84572,100.));
#2390=DIRECTION('',(-1.,0.,0.));
#2400=VECTOR('',#2390,1.);
#2410=LINE('',#2380,#2400);
#2420=CARTESIAN_POINT('',(3.65948000000001,3.84572,100.));
#2430=VERTEX_POINT('',#2420);
#2440=EDGE_CURVE('',#2430,#2350,#2410,.T.);
#2450=ORIENTED_EDGE('',*,*,#2440,.T.);
#2460=CARTESIAN_POINT('',(3.65948,2.34572,100.));
#2470=DIRECTION('',(0.,0.,1.));
#2480=DIRECTION('',(-1.,0.,0.));
#2490=AXIS2_PLACEMENT_3D('',#2460,#2470,#2480);
#2500=CIRCLE('',#2490,1.5);
#2510=CARTESIAN_POINT('',(5.15948000000001,2.34572,100.));
#2520=VERTEX_POINT('',#2510);
#2530=EDGE_CURVE('',#2520,#2430,#2500,.T.);
#2540=ORIENTED_EDGE('',*,*,#2530,.T.);
#2550=CARTESIAN_POINT('',(5.15948,-1.15428,100.));
#2560=DIRECTION('',(0.,1.,0.));
#2570=VECTOR('',#2560,1.);
#2580=LINE('',#2550,#2570);
#2590=CARTESIAN_POINT('',(5.15948000000001,-2.65428,100.));
#2600=VERTEX_POINT('',#2590);
#2610=EDGE_CURVE('',#2600,#2520,#2580,.T.);
#2620=ORIENTED_EDGE('',*,*,#2610,.T.);
#2630=CARTESIAN_POINT('',(3.65948000000001,-2.65427999999999,100.));
#2640=DIRECTION('',(0.,0.,1.));
#2650=DIRECTION('',(-1.,0.,0.));
#2660=AXIS2_PLACEMENT_3D('',#2630,#2640,#2650);
#2670=CIRCLE('',#2660,1.5);
#2680=CARTESIAN_POINT('',(3.65948000000001,-1.15428,100.));
#2690=VERTEX_POINT('',#2680);
#2700=EDGE_CURVE('',#2600,#2690,#2670,.T.);
#2710=ORIENTED_EDGE('',*,*,#2700,.F.);
#2720=CARTESIAN_POINT('',(-14.84052,-1.15428,100.));
#2730=DIRECTION('',(1.,0.,0.));
#2740=VECTOR('',#2730,1.);
#2750=LINE('',#2720,#2740);
#2760=CARTESIAN_POINT('',(-9.74052,-1.15428,100.));
#2770=VERTEX_POINT('',#2760);
#2780=EDGE_CURVE('',#2770,#2690,#2750,.T.);
#2790=ORIENTED_EDGE('',*,*,#2780,.T.);
#2800=CARTESIAN_POINT('',(-9.74052,-1.15428,100.));
#2810=DIRECTION('',(0.,-1.,0.));
#2820=VECTOR('',#2810,1.);
#2830=LINE('',#2800,#2820);
#2840=CARTESIAN_POINT('',(-9.74052,-3.15428000000003,100.));
#2850=VERTEX_POINT('',#2840);
#2860=EDGE_CURVE('',#2770,#2850,#2830,.T.);
#2870=ORIENTED_EDGE('',*,*,#2860,.F.);
#2880=CARTESIAN_POINT('',(-14.84052,-3.15428000000003,100.));
#2890=DIRECTION('',(1.,0.,0.));
#2900=VECTOR('',#2890,1.);
#2910=LINE('',#2880,#2900);
#2920=CARTESIAN_POINT('',(-9.09052,-3.15428000000003,100.));
#2930=VERTEX_POINT('',#2920);
#2940=EDGE_CURVE('',#2850,#2930,#2910,.T.);
#2950=ORIENTED_EDGE('',*,*,#2940,.F.);
#2960=CARTESIAN_POINT('',(-7.93581945999998,-1.15428,100.));
#2970=DIRECTION('',(-0.500000000526354,-0.866025403480548,0.));
#2980=VECTOR('',#2970,1.);
#2990=LINE('',#2960,#2980);
#3000=CARTESIAN_POINT('',(-11.39992108,-7.15428000000003,100.));
#3010=VERTEX_POINT('',#3000);
#3020=EDGE_CURVE('',#2930,#3010,#2990,.T.);
#3030=ORIENTED_EDGE('',*,*,#3020,.F.);
#3040=CARTESIAN_POINT('',(-14.84052,-7.15428000000003,100.));
#3050=DIRECTION('',(-1.,0.,0.));
#3060=VECTOR('',#3050,1.);
#3070=LINE('',#3040,#3060);
#3080=CARTESIAN_POINT('',(-11.84052,-7.15428,100.));
#3090=VERTEX_POINT('',#3080);
#3100=EDGE_CURVE('',#3010,#3090,#3070,.T.);
#3110=ORIENTED_EDGE('',*,*,#3100,.F.);
#3120=CARTESIAN_POINT('',(-11.84052,-1.15428,100.));
#3130=DIRECTION('',(0.,-1.,0.));
#3140=VECTOR('',#3130,1.);
#3150=LINE('',#3120,#3140);
#3160=CARTESIAN_POINT('',(-11.84052,-0.15428,100.));
#3170=VERTEX_POINT('',#3160);
#3180=EDGE_CURVE('',#3170,#3090,#3150,.T.);
#3190=ORIENTED_EDGE('',*,*,#3180,.T.);
#3200=CARTESIAN_POINT('',(-14.84052,-0.15428,100.));
#3210=DIRECTION('',(1.,0.,0.));
#3220=VECTOR('',#3210,1.);
#3230=LINE('',#3200,#3220);
#3240=CARTESIAN_POINT('',(-17.84052,-0.15428,100.));
#3250=VERTEX_POINT('',#3240);
#3260=EDGE_CURVE('',#3250,#3170,#3230,.T.);
#3270=ORIENTED_EDGE('',*,*,#3260,.T.);
#3280=CARTESIAN_POINT('',(-17.84052,-1.15428,100.));
#3290=DIRECTION('',(0.,1.,0.));
#3300=VECTOR('',#3290,1.);
#3310=LINE('',#3280,#3300);
#3320=CARTESIAN_POINT('',(-17.84052,-7.15428,100.));
#3330=VERTEX_POINT('',#3320);
#3340=EDGE_CURVE('',#3330,#3250,#3310,.T.);
#3350=ORIENTED_EDGE('',*,*,#3340,.T.);
#3360=CARTESIAN_POINT('',(-14.84052,-7.15428000000003,100.));
#3370=DIRECTION('',(-1.,0.,0.));
#3380=VECTOR('',#3370,1.);
#3390=LINE('',#3360,#3380);
#3400=EDGE_CURVE('',#3330,#1830,#3390,.T.);
#3410=ORIENTED_EDGE('',*,*,#3400,.F.);
#3420=EDGE_LOOP('',(#3410,#3350,#3270,#3190,#3110,#3030,#2950,#2870,
#2790,#2710,#2620,#2540,#2450,#2370,#2280,#2200,#2110,#2030,#1950,#1870)
);
#3430=FACE_OUTER_BOUND('',#3420,.T.);
#3440=ADVANCED_FACE('',(#3430),#1770,.T.);
#3450=CARTESIAN_POINT('',(-17.84052,-7.15428,0.));
#3460=DIRECTION('',(-0.,-1.,-0.));
#3470=DIRECTION('',(-1.,0.,0.));
#3480=AXIS2_PLACEMENT_3D('',#3450,#3460,#3470);
#3490=PLANE('',#3480);
#3500=CARTESIAN_POINT('',(-18.28111893,-7.15428000000003,0.));
#3510=DIRECTION('',(0.,0.,1.));
#3520=VECTOR('',#3510,1.);
#3530=LINE('',#3500,#3520);
#3540=EDGE_CURVE('',#130,#1830,#3530,.T.);
#3550=ORIENTED_EDGE('',*,*,#3540,.F.);
#3560=ORIENTED_EDGE('',*,*,#3400,.T.);
#3570=CARTESIAN_POINT('',(-17.84052,-7.15428,0.));
#3580=DIRECTION('',(0.,0.,1.));
#3590=VECTOR('',#3580,1.);
#3600=LINE('',#3570,#3590);
#3610=EDGE_CURVE('',#110,#3330,#3600,.T.);
#3620=ORIENTED_EDGE('',*,*,#3610,.T.);
#3630=ORIENTED_EDGE('',*,*,#140,.F.);
#3640=EDGE_LOOP('',(#3630,#3620,#3560,#3550));
#3650=FACE_OUTER_BOUND('',#3640,.T.);
#3660=ADVANCED_FACE('',(#3650),#3490,.T.);
#3670=CARTESIAN_POINT('',(-17.84052,-0.15428,0.));
#3680=DIRECTION('',(1.,0.,0.));
#3690=DIRECTION('',(0.,-1.,0.));
#3700=AXIS2_PLACEMENT_3D('',#3670,#3680,#3690);
#3710=PLANE('',#3700);
#3720=ORIENTED_EDGE('',*,*,#3610,.F.);
#3730=ORIENTED_EDGE('',*,*,#3340,.F.);
#3740=CARTESIAN_POINT('',(-17.84052,-0.15428,0.));
#3750=DIRECTION('',(0.,0.,1.));
#3760=VECTOR('',#3750,1.);
#3770=LINE('',#3740,#3760);
#3780=EDGE_CURVE('',#210,#3250,#3770,.T.);
#3790=ORIENTED_EDGE('',*,*,#3780,.T.);
#3800=ORIENTED_EDGE('',*,*,#220,.T.);
#3810=EDGE_LOOP('',(#3800,#3790,#3730,#3720));
#3820=FACE_OUTER_BOUND('',#3810,.T.);
#3830=ADVANCED_FACE('',(#3820),#3710,.T.);
#3840=CARTESIAN_POINT('',(-11.84052,-0.15428,0.));
#3850=DIRECTION('',(-0.,-1.,-0.));
#3860=DIRECTION('',(-1.,0.,0.));
#3870=AXIS2_PLACEMENT_3D('',#3840,#3850,#3860);
#3880=PLANE('',#3870);
#3890=ORIENTED_EDGE('',*,*,#3780,.F.);
#3900=ORIENTED_EDGE('',*,*,#3260,.F.);
#3910=CARTESIAN_POINT('',(-11.84052,-0.15428,0.));
#3920=DIRECTION('',(0.,0.,1.));
#3930=VECTOR('',#3920,1.);
#3940=LINE('',#3910,#3930);
#3950=EDGE_CURVE('',#290,#3170,#3940,.T.);
#3960=ORIENTED_EDGE('',*,*,#3950,.T.);
#3970=ORIENTED_EDGE('',*,*,#300,.T.);
#3980=EDGE_LOOP('',(#3970,#3960,#3900,#3890));
#3990=FACE_OUTER_BOUND('',#3980,.T.);
#4000=ADVANCED_FACE('',(#3990),#3880,.T.);
#4010=CARTESIAN_POINT('',(-11.84052,-7.15428,0.));
#4020=DIRECTION('',(-1.,0.,0.));
#4030=DIRECTION('',(0.,1.,0.));
#4040=AXIS2_PLACEMENT_3D('',#4010,#4020,#4030);
#4050=PLANE('',#4040);
#4060=ORIENTED_EDGE('',*,*,#3950,.F.);
#4070=ORIENTED_EDGE('',*,*,#3180,.F.);
#4080=CARTESIAN_POINT('',(-11.84052,-7.15428,0.));
#4090=DIRECTION('',(0.,0.,1.));
#4100=VECTOR('',#4090,1.);
#4110=LINE('',#4080,#4100);
#4120=EDGE_CURVE('',#370,#3090,#4110,.T.);
#4130=ORIENTED_EDGE('',*,*,#4120,.T.);
#4140=ORIENTED_EDGE('',*,*,#380,.T.);
#4150=EDGE_LOOP('',(#4140,#4130,#4070,#4060));
#4160=FACE_OUTER_BOUND('',#4150,.T.);
#4170=ADVANCED_FACE('',(#4160),#4050,.T.);
#4180=CARTESIAN_POINT('',(-11.39992108,-7.15428000000003,0.));
#4190=DIRECTION('',(-0.,-1.,-0.));
#4200=DIRECTION('',(-1.,0.,0.));
#4210=AXIS2_PLACEMENT_3D('',#4180,#4190,#4200);
#4220=PLANE('',#4210);
#4230=ORIENTED_EDGE('',*,*,#4120,.F.);
#4240=ORIENTED_EDGE('',*,*,#3100,.T.);
#4250=CARTESIAN_POINT('',(-11.39992108,-7.15428000000003,0.));
#4260=DIRECTION('',(0.,0.,1.));
#4270=VECTOR('',#4260,1.);
#4280=LINE('',#4250,#4270);
#4290=EDGE_CURVE('',#450,#3010,#4280,.T.);
#4300=ORIENTED_EDGE('',*,*,#4290,.T.);
#4310=ORIENTED_EDGE('',*,*,#460,.F.);
#4320=EDGE_LOOP('',(#4310,#4300,#4240,#4230));
#4330=FACE_OUTER_BOUND('',#4320,.T.);
#4340=ADVANCED_FACE('',(#4330),#4220,.T.);
#4350=CARTESIAN_POINT('',(-9.09052,-3.15428000000003,0.));
#4360=DIRECTION('',(0.866025403480548,-0.500000000526354,0.));
#4370=DIRECTION('',(-0.500000000526354,-0.866025403480548,0.));
#4380=AXIS2_PLACEMENT_3D('',#4350,#4360,#4370);
#4390=PLANE('',#4380);
#4400=ORIENTED_EDGE('',*,*,#4290,.F.);
#4410=ORIENTED_EDGE('',*,*,#3020,.T.);
#4420=CARTESIAN_POINT('',(-9.09052,-3.15428000000003,0.));
#4430=DIRECTION('',(0.,0.,1.));
#4440=VECTOR('',#4430,1.);
#4450=LINE('',#4420,#4440);
#4460=EDGE_CURVE('',#530,#2930,#4450,.T.);
#4470=ORIENTED_EDGE('',*,*,#4460,.T.);
#4480=ORIENTED_EDGE('',*,*,#540,.F.);
#4490=EDGE_LOOP('',(#4480,#4470,#4410,#4400));
#4500=FACE_OUTER_BOUND('',#4490,.T.);
#4510=ADVANCED_FACE('',(#4500),#4390,.T.);
#4520=CARTESIAN_POINT('',(-9.74052,-3.15428000000003,0.));
#4530=DIRECTION('',(-0.,1.,0.));
#4540=DIRECTION('',(1.,0.,0.));
#4550=AXIS2_PLACEMENT_3D('',#4520,#4530,#4540);
#4560=PLANE('',#4550);
#4570=ORIENTED_EDGE('',*,*,#4460,.F.);
#4580=ORIENTED_EDGE('',*,*,#2940,.T.);
#4590=CARTESIAN_POINT('',(-9.74052,-3.15428000000003,0.));
#4600=DIRECTION('',(0.,0.,1.));
#4610=VECTOR('',#4600,1.);
#4620=LINE('',#4590,#4610);
#4630=EDGE_CURVE('',#610,#2850,#4620,.T.);
#4640=ORIENTED_EDGE('',*,*,#4630,.T.);
#4650=ORIENTED_EDGE('',*,*,#620,.F.);
#4660=EDGE_LOOP('',(#4650,#4640,#4580,#4570));
#4670=FACE_OUTER_BOUND('',#4660,.T.);
#4680=ADVANCED_FACE('',(#4670),#4560,.T.);
#4690=CARTESIAN_POINT('',(-9.74052,-1.15428,0.));
#4700=DIRECTION('',(1.,0.,0.));
#4710=DIRECTION('',(0.,-1.,0.));
#4720=AXIS2_PLACEMENT_3D('',#4690,#4700,#4710);
#4730=PLANE('',#4720);
#4740=ORIENTED_EDGE('',*,*,#4630,.F.);
#4750=ORIENTED_EDGE('',*,*,#2860,.T.);
#4760=CARTESIAN_POINT('',(-9.74052,-1.15428,0.));
#4770=DIRECTION('',(0.,0.,1.));
#4780=VECTOR('',#4770,1.);
#4790=LINE('',#4760,#4780);
#4800=EDGE_CURVE('',#690,#2770,#4790,.T.);
#4810=ORIENTED_EDGE('',*,*,#4800,.T.);
#4820=ORIENTED_EDGE('',*,*,#700,.F.);
#4830=EDGE_LOOP('',(#4820,#4810,#4750,#4740));
#4840=FACE_OUTER_BOUND('',#4830,.T.);
#4850=ADVANCED_FACE('',(#4840),#4730,.T.);
#4860=CARTESIAN_POINT('',(3.65948000000001,-1.15428,0.));
#4870=DIRECTION('',(-0.,-1.,-0.));
#4880=DIRECTION('',(-1.,0.,0.));
#4890=AXIS2_PLACEMENT_3D('',#4860,#4870,#4880);
#4900=PLANE('',#4890);
#4910=ORIENTED_EDGE('',*,*,#4800,.F.);
#4920=ORIENTED_EDGE('',*,*,#2780,.F.);
#4930=CARTESIAN_POINT('',(3.65948000000001,-1.15428,0.));
#4940=DIRECTION('',(0.,0.,1.));
#4950=VECTOR('',#4940,1.);
#4960=LINE('',#4930,#4950);
#4970=EDGE_CURVE('',#770,#2690,#4960,.T.);
#4980=ORIENTED_EDGE('',*,*,#4970,.T.);
#4990=ORIENTED_EDGE('',*,*,#780,.T.);
#5000=EDGE_LOOP('',(#4990,#4980,#4920,#4910));
#5010=FACE_OUTER_BOUND('',#5000,.T.);
#5020=ADVANCED_FACE('',(#5010),#4900,.T.);
#5030=CARTESIAN_POINT('',(3.65948000000001,-2.65427999999999,0.));
#5040=DIRECTION('',(0.,0.,1.));
#5050=DIRECTION('',(-1.,0.,0.));
#5060=AXIS2_PLACEMENT_3D('',#5030,#5040,#5050);
#5070=CYLINDRICAL_SURFACE('',#5060,1.5);
#5080=ORIENTED_EDGE('',*,*,#4970,.F.);
#5090=ORIENTED_EDGE('',*,*,#2700,.T.);
#5100=CARTESIAN_POINT('',(5.15948000000001,-2.65428,0.));
#5110=DIRECTION('',(0.,0.,1.));
#5120=VECTOR('',#5110,1.);
#5130=LINE('',#5100,#5120);
#5140=EDGE_CURVE('',#860,#2600,#5130,.T.);
#5150=ORIENTED_EDGE('',*,*,#5140,.T.);
#5160=ORIENTED_EDGE('',*,*,#870,.F.);
#5170=EDGE_LOOP('',(#5160,#5150,#5090,#5080));
#5180=FACE_OUTER_BOUND('',#5170,.T.);
#5190=ADVANCED_FACE('',(#5180),#5070,.F.);
#5200=CARTESIAN_POINT('',(5.15948000000001,2.34572,0.));
#5210=DIRECTION('',(1.,0.,0.));
#5220=DIRECTION('',(0.,-1.,0.));
#5230=AXIS2_PLACEMENT_3D('',#5200,#5210,#5220);
#5240=PLANE('',#5230);
#5250=ORIENTED_EDGE('',*,*,#5140,.F.);
#5260=ORIENTED_EDGE('',*,*,#2610,.F.);
#5270=CARTESIAN_POINT('',(5.15948000000001,2.34572,0.));
#5280=DIRECTION('',(0.,0.,1.));
#5290=VECTOR('',#5280,1.);
#5300=LINE('',#5270,#5290);
#5310=EDGE_CURVE('',#940,#2520,#5300,.T.);
#5320=ORIENTED_EDGE('',*,*,#5310,.T.);
#5330=ORIENTED_EDGE('',*,*,#950,.T.);
#5340=EDGE_LOOP('',(#5330,#5320,#5260,#5250));
#5350=FACE_OUTER_BOUND('',#5340,.T.);
#5360=ADVANCED_FACE('',(#5350),#5240,.T.);
#5370=CARTESIAN_POINT('',(3.65948,2.34572,0.));
#5380=DIRECTION('',(0.,0.,1.));
#5390=DIRECTION('',(-1.,0.,0.));
#5400=AXIS2_PLACEMENT_3D('',#5370,#5380,#5390);
#5410=CYLINDRICAL_SURFACE('',#5400,1.5);
#5420=ORIENTED_EDGE('',*,*,#5310,.F.);
#5430=ORIENTED_EDGE('',*,*,#2530,.F.);
#5440=CARTESIAN_POINT('',(3.65948000000001,3.84572,0.));
#5450=DIRECTION('',(0.,0.,1.));
#5460=VECTOR('',#5450,1.);
#5470=LINE('',#5440,#5460);
#5480=EDGE_CURVE('',#1030,#2430,#5470,.T.);
#5490=ORIENTED_EDGE('',*,*,#5480,.T.);
#5500=ORIENTED_EDGE('',*,*,#1040,.T.);
#5510=EDGE_LOOP('',(#5500,#5490,#5430,#5420));
#5520=FACE_OUTER_BOUND('',#5510,.T.);
#5530=ADVANCED_FACE('',(#5520),#5410,.T.);
#5540=CARTESIAN_POINT('',(-33.34052,3.84572000000001,0.));
#5550=DIRECTION('',(-0.,1.,0.));
#5560=DIRECTION('',(1.,0.,0.));
#5570=AXIS2_PLACEMENT_3D('',#5540,#5550,#5560);
#5580=PLANE('',#5570);
#5590=ORIENTED_EDGE('',*,*,#5480,.F.);
#5600=ORIENTED_EDGE('',*,*,#2440,.F.);
#5610=CARTESIAN_POINT('',(-33.34052,3.84572000000001,0.));
#5620=DIRECTION('',(0.,0.,1.));
#5630=VECTOR('',#5620,1.);
#5640=LINE('',#5610,#5630);
#5650=EDGE_CURVE('',#1110,#2350,#5640,.T.);
#5660=ORIENTED_EDGE('',*,*,#5650,.T.);
#5670=ORIENTED_EDGE('',*,*,#1120,.T.);
#5680=EDGE_LOOP('',(#5670,#5660,#5600,#5590));
#5690=FACE_OUTER_BOUND('',#5680,.T.);
#5700=ADVANCED_FACE('',(#5690),#5580,.T.);
#5710=CARTESIAN_POINT('',(-33.34052,2.34572,0.));
#5720=DIRECTION('',(0.,0.,1.));
#5730=DIRECTION('',(1.,0.,0.));
#5740=AXIS2_PLACEMENT_3D('',#5710,#5720,#5730);
#5750=CYLINDRICAL_SURFACE('',#5740,1.5);
#5760=ORIENTED_EDGE('',*,*,#5650,.F.);
#5770=ORIENTED_EDGE('',*,*,#2360,.F.);
#5780=CARTESIAN_POINT('',(-34.84052,2.34572000000001,0.));
#5790=DIRECTION('',(0.,0.,1.));
#5800=VECTOR('',#5790,1.);
#5810=LINE('',#5780,#5800);
#5820=EDGE_CURVE('',#1200,#2260,#5810,.T.);
#5830=ORIENTED_EDGE('',*,*,#5820,.T.);
#5840=ORIENTED_EDGE('',*,*,#1210,.T.);
#5850=EDGE_LOOP('',(#5840,#5830,#5770,#5760));
#5860=FACE_OUTER_BOUND('',#5850,.T.);
#5870=ADVANCED_FACE('',(#5860),#5750,.T.);
#5880=CARTESIAN_POINT('',(-34.84052,-2.65427999999999,0.));
#5890=DIRECTION('',(-1.,0.,0.));
#5900=DIRECTION('',(0.,1.,0.));
#5910=AXIS2_PLACEMENT_3D('',#5880,#5890,#5900);
#5920=PLANE('',#5910);
#5930=ORIENTED_EDGE('',*,*,#5820,.F.);
#5940=ORIENTED_EDGE('',*,*,#2270,.F.);
#5950=CARTESIAN_POINT('',(-34.84052,-2.65427999999999,0.));
#5960=DIRECTION('',(0.,0.,1.));
#5970=VECTOR('',#5960,1.);
#5980=LINE('',#5950,#5970);
#5990=EDGE_CURVE('',#1280,#2180,#5980,.T.);
#6000=ORIENTED_EDGE('',*,*,#5990,.T.);
#6010=ORIENTED_EDGE('',*,*,#1290,.T.);
#6020=EDGE_LOOP('',(#6010,#6000,#5940,#5930));
#6030=FACE_OUTER_BOUND('',#6020,.T.);
#6040=ADVANCED_FACE('',(#6030),#5920,.T.);
#6050=CARTESIAN_POINT('',(-33.34052,-2.65428,0.));
#6060=DIRECTION('',(0.,0.,1.));
#6070=DIRECTION('',(1.,0.,0.));
#6080=AXIS2_PLACEMENT_3D('',#6050,#6060,#6070);
#6090=CYLINDRICAL_SURFACE('',#6080,1.5);
#6100=ORIENTED_EDGE('',*,*,#5990,.F.);
#6110=ORIENTED_EDGE('',*,*,#2190,.T.);
#6120=CARTESIAN_POINT('',(-33.34052,-1.15427999999999,0.));
#6130=DIRECTION('',(0.,0.,1.));
#6140=VECTOR('',#6130,1.);
#6150=LINE('',#6120,#6140);
#6160=EDGE_CURVE('',#1370,#2090,#6150,.T.);
#6170=ORIENTED_EDGE('',*,*,#6160,.T.);
#6180=ORIENTED_EDGE('',*,*,#1380,.F.);
#6190=EDGE_LOOP('',(#6180,#6170,#6110,#6100));
#6200=FACE_OUTER_BOUND('',#6190,.T.);
#6210=ADVANCED_FACE('',(#6200),#6090,.F.);
#6220=CARTESIAN_POINT('',(-19.940520007,-1.15428000000013,0.));
#6230=DIRECTION('',(-0.,-1.,-0.));
#6240=DIRECTION('',(-1.,0.,0.));
#6250=AXIS2_PLACEMENT_3D('',#6220,#6230,#6240);
#6260=PLANE('',#6250);
#6270=ORIENTED_EDGE('',*,*,#6160,.F.);
#6280=ORIENTED_EDGE('',*,*,#2100,.F.);
#6290=CARTESIAN_POINT('',(-19.940520007,-1.15428000000013,0.));
#6300=DIRECTION('',(0.,0.,1.));
#6310=VECTOR('',#6300,1.);
#6320=LINE('',#6290,#6310);
#6330=EDGE_CURVE('',#1450,#2010,#6320,.T.);
#6340=ORIENTED_EDGE('',*,*,#6330,.T.);
#6350=ORIENTED_EDGE('',*,*,#1460,.T.);
#6360=EDGE_LOOP('',(#6350,#6340,#6280,#6270));
#6370=FACE_OUTER_BOUND('',#6360,.T.);
#6380=ADVANCED_FACE('',(#6370),#6260,.T.);
#6390=CARTESIAN_POINT('',(-19.940520007,-3.15428000000008,0.));
#6400=DIRECTION('',(-1.,0.,0.));
#6410=DIRECTION('',(0.,1.,0.));
#6420=AXIS2_PLACEMENT_3D('',#6390,#6400,#6410);
#6430=PLANE('',#6420);
#6440=ORIENTED_EDGE('',*,*,#6330,.F.);
#6450=ORIENTED_EDGE('',*,*,#2020,.T.);
#6460=CARTESIAN_POINT('',(-19.940520007,-3.15428000000008,0.));
#6470=DIRECTION('',(0.,0.,1.));
#6480=VECTOR('',#6470,1.);
#6490=LINE('',#6460,#6480);
#6500=EDGE_CURVE('',#1530,#1930,#6490,.T.);
#6510=ORIENTED_EDGE('',*,*,#6500,.T.);
#6520=ORIENTED_EDGE('',*,*,#1540,.F.);
#6530=EDGE_LOOP('',(#6520,#6510,#6450,#6440));
#6540=FACE_OUTER_BOUND('',#6530,.T.);
#6550=ADVANCED_FACE('',(#6540),#6430,.T.);
#6560=CARTESIAN_POINT('',(-20.590520007,-3.15428000000008,0.));
#6570=DIRECTION('',(-0.,1.,0.));
#6580=DIRECTION('',(1.,0.,0.));
#6590=AXIS2_PLACEMENT_3D('',#6560,#6570,#6580);
#6600=PLANE('',#6590);
#6610=ORIENTED_EDGE('',*,*,#6500,.F.);
#6620=ORIENTED_EDGE('',*,*,#1940,.T.);
#6630=CARTESIAN_POINT('',(-20.590520007,-3.15428000000008,0.));
#6640=DIRECTION('',(0.,0.,1.));
#6650=VECTOR('',#6640,1.);
#6660=LINE('',#6630,#6650);
#6670=EDGE_CURVE('',#1610,#1850,#6660,.T.);
#6680=ORIENTED_EDGE('',*,*,#6670,.T.);
#6690=ORIENTED_EDGE('',*,*,#1620,.F.);
#6700=EDGE_LOOP('',(#6690,#6680,#6620,#6610));
#6710=FACE_OUTER_BOUND('',#6700,.T.);
#6720=ADVANCED_FACE('',(#6710),#6600,.T.);
#6730=CARTESIAN_POINT('',(-18.28111893,-7.15428000000003,0.));
#6740=DIRECTION('',(-0.866025403761795,-0.50000000003922,-0.));
#6750=DIRECTION('',(-0.50000000003922,0.866025403761795,0.));
#6760=AXIS2_PLACEMENT_3D('',#6730,#6740,#6750);
#6770=PLANE('',#6760);
#6780=ORIENTED_EDGE('',*,*,#6670,.F.);
#6790=ORIENTED_EDGE('',*,*,#1860,.T.);
#6800=ORIENTED_EDGE('',*,*,#3540,.T.);
#6810=ORIENTED_EDGE('',*,*,#1680,.F.);
#6820=EDGE_LOOP('',(#6810,#6800,#6790,#6780));
#6830=FACE_OUTER_BOUND('',#6820,.T.);
#6840=ADVANCED_FACE('',(#6830),#6770,.T.);
#6850=CLOSED_SHELL('',(#3660,#3830,#4000,#4170,#4340,#4510,#4680,#4850,
#5020,#5190,#5360,#5530,#5700,#5870,#6040,#6210,#6380,#6550,#6720,#6840,
#3440,#1720));
#6860=MANIFOLD_SOLID_BREP('',#6850);
#6870=CARTESIAN_POINT('',(0.,0.,0.));
#6880=DIRECTION('',(0.,0.,1.));
#6890=DIRECTION('',(1.,0.,0.));
#6900=AXIS2_PLACEMENT_3D('',#6870,#6880,#6890);
#6910=APPLICATION_CONTEXT(' ');
#6920=APPLICATION_PROTOCOL_DEFINITION(' ','automotive_design',1998,#6910
);
#6930=PRODUCT_CONTEXT('',#6910,'mechanical');
#6940=PRODUCT_DEFINITION_CONTEXT('part definition',#6910,'design');
#6950=PRODUCT(
'Profilabdeckung-Flach-MMS-44_40x5-schwarz-leitf\S\dhig_44.0301.4_PX1748
23',
'Profilabdeckung-Flach-MMS-44_40x5-schwarz-leitf\S\dhig_44.0301.4_PX1748
23','',(#6930));
#6960=PRODUCT_RELATED_PRODUCT_CATEGORY('part',' ',(#6950));
#6970=PRODUCT_DEFINITION_FORMATION_WITH_SPECIFIED_SOURCE('','',#6950,
.BOUGHT.);
#6980=PRODUCT_DEFINITION('',' ',#6970,#6940);
#6990=PRODUCT_DEFINITION_SHAPE('','',#6980);
#7000=DIMENSIONAL_EXPONENTS(1.,0.,0.,0.,0.,0.,0.);
#7010=DIMENSIONAL_EXPONENTS(0.,0.,0.,0.,0.,0.,0.);
#7020=DIMENSIONAL_EXPONENTS(0.,0.,0.,0.,0.,0.,0.);
#7030=(LENGTH_UNIT() NAMED_UNIT(*) SI_UNIT(.MILLI.,.METRE.));
#7040=(NAMED_UNIT(*) PLANE_ANGLE_UNIT() SI_UNIT($,.RADIAN.));
#7050=(NAMED_UNIT(*) SI_UNIT($,.STERADIAN.) SOLID_ANGLE_UNIT());
#7060=(GEOMETRIC_REPRESENTATION_CONTEXT(3) 
GLOBAL_UNCERTAINTY_ASSIGNED_CONTEXT((#7070)) 
GLOBAL_UNIT_ASSIGNED_CONTEXT((#7030,#7040,#7050)) REPRESENTATION_CONTEXT
('',''));
#7070=UNCERTAINTY_MEASURE_WITH_UNIT(LENGTH_MEASURE(1.E-6),#7030,
'distance_accuracy_value','maximum gap value');
#7080=ADVANCED_BREP_SHAPE_REPRESENTATION('',(#6900,#6860),#7060);
#7090=SHAPE_DEFINITION_REPRESENTATION(#6990,#7080);
#7100=COLOUR_RGB('',0.0823529437184334,0.0862745121121407,
0.0980392247438431);
#7110=FILL_AREA_STYLE_COLOUR('',#7100);
#7120=FILL_AREA_STYLE('',(#7110));
#7130=SURFACE_STYLE_FILL_AREA(#7120);
#7140=SURFACE_SIDE_STYLE('',(#7130));
#7150=SURFACE_STYLE_USAGE(.BOTH.,#7140);
#7160=PRESENTATION_STYLE_ASSIGNMENT((#7150));
#7170=STYLED_ITEM('',(#7160),#6860);
#7180=DRAUGHTING_MODEL('',(#7170),#7060);
ENDSEC;
END-ISO-10303-21;
