ISO-10303-21;
HEADER;
FILE_DESCRIPTION(('Creo Elements/Direct Modeling STEP Export'),'2;1');
FILE_NAME(
'//KR-CAD2/PhoenixTemp/karl.letzgus/Konvertierung/44.0380_Anschlussplatt
e-MMS-44_G3-8-Zoll.stp','2022-03-21T 9:02:48',(''),(''),
'PTC Creo Elements/Direct Modeling STEP processor for AP214 (Solid Model
)',
'PTC Creo Elements/Direct Modeling 19.0C  15-Aug-2015 (C) Parametric Tec
hnology GmbH','');
FILE_SCHEMA(('AUTOMOTIVE_DESIGN { 1 0 10303 214 1 1 1 1 }'));
ENDSEC;
DATA;
#10=CARTESIAN_POINT('',(0.,0.,0.));
#20=DIRECTION('',(0.,0.,1.));
#30=DIRECTION('',(1.,0.,0.));
#40=AXIS2_PLACEMENT_3D('',#10,#20,#30);
#50=PLANE('',#40);
#60=CARTESIAN_POINT('',(35.,5.,0.));
#70=DIRECTION('',(0.,0.,1.));
#80=DIRECTION('',(1.,0.,0.));
#90=AXIS2_PLACEMENT_3D('',#60,#70,#80);
#100=CIRCLE('',#90,3.25);
#110=CARTESIAN_POINT('',(38.25,5.,0.));
#120=VERTEX_POINT('',#110);
#130=CARTESIAN_POINT('',(31.75,5.,0.));
#140=VERTEX_POINT('',#130);
#150=EDGE_CURVE('',#120,#140,#100,.T.);
#160=ORIENTED_EDGE('',*,*,#150,.T.);
#170=EDGE_CURVE('',#140,#120,#100,.T.);
#180=ORIENTED_EDGE('',*,*,#170,.T.);
#190=EDGE_LOOP('',(#180,#160));
#200=FACE_BOUND('',#190,.T.);
#210=CARTESIAN_POINT('',(5.,5.,0.));
#220=DIRECTION('',(0.,0.,1.));
#230=DIRECTION('',(1.,0.,0.));
#240=AXIS2_PLACEMENT_3D('',#210,#220,#230);
#250=CIRCLE('',#240,3.25);
#260=CARTESIAN_POINT('',(8.25,5.,0.));
#270=VERTEX_POINT('',#260);
#280=CARTESIAN_POINT('',(1.75,5.,0.));
#290=VERTEX_POINT('',#280);
#300=EDGE_CURVE('',#270,#290,#250,.T.);
#310=ORIENTED_EDGE('',*,*,#300,.T.);
#320=EDGE_CURVE('',#290,#270,#250,.T.);
#330=ORIENTED_EDGE('',*,*,#320,.T.);
#340=EDGE_LOOP('',(#330,#310));
#350=FACE_BOUND('',#340,.T.);
#360=CARTESIAN_POINT('',(35.,35.,0.));
#370=DIRECTION('',(0.,0.,1.));
#380=DIRECTION('',(1.,0.,0.));
#390=AXIS2_PLACEMENT_3D('',#360,#370,#380);
#400=CIRCLE('',#390,3.25);
#410=CARTESIAN_POINT('',(38.25,35.,0.));
#420=VERTEX_POINT('',#410);
#430=CARTESIAN_POINT('',(31.75,35.,0.));
#440=VERTEX_POINT('',#430);
#450=EDGE_CURVE('',#420,#440,#400,.T.);
#460=ORIENTED_EDGE('',*,*,#450,.T.);
#470=EDGE_CURVE('',#440,#420,#400,.T.);
#480=ORIENTED_EDGE('',*,*,#470,.T.);
#490=EDGE_LOOP('',(#480,#460));
#500=FACE_BOUND('',#490,.T.);
#510=CARTESIAN_POINT('',(20.,20.,0.));
#520=DIRECTION('',(0.,0.,1.));
#530=DIRECTION('',(1.,0.,0.));
#540=AXIS2_PLACEMENT_3D('',#510,#520,#530);
#550=CIRCLE('',#540,8.33100029371023);
#560=CARTESIAN_POINT('',(28.3310002937102,20.,8.88178419700125E-16));
#570=VERTEX_POINT('',#560);
#580=CARTESIAN_POINT('',(11.6689997062898,20.,-1.11022302462516E-16));
#590=VERTEX_POINT('',#580);
#600=EDGE_CURVE('',#570,#590,#550,.T.);
#610=ORIENTED_EDGE('',*,*,#600,.T.);
#620=EDGE_CURVE('',#590,#570,#550,.T.);
#630=ORIENTED_EDGE('',*,*,#620,.T.);
#640=EDGE_LOOP('',(#630,#610));
#650=FACE_BOUND('',#640,.T.);
#660=CARTESIAN_POINT('',(5.,35.,0.));
#670=DIRECTION('',(0.,0.,1.));
#680=DIRECTION('',(1.,0.,0.));
#690=AXIS2_PLACEMENT_3D('',#660,#670,#680);
#700=CIRCLE('',#690,3.25);
#710=CARTESIAN_POINT('',(8.25,35.,0.));
#720=VERTEX_POINT('',#710);
#730=CARTESIAN_POINT('',(1.75,35.,0.));
#740=VERTEX_POINT('',#730);
#750=EDGE_CURVE('',#720,#740,#700,.T.);
#760=ORIENTED_EDGE('',*,*,#750,.T.);
#770=EDGE_CURVE('',#740,#720,#700,.T.);
#780=ORIENTED_EDGE('',*,*,#770,.T.);
#790=EDGE_LOOP('',(#780,#760));
#800=FACE_BOUND('',#790,.T.);
#810=CARTESIAN_POINT('',(-39.,0.,0.));
#820=DIRECTION('',(-0.707106781186548,-0.707106781186548,0.));
#830=VECTOR('',#820,1.);
#840=LINE('',#810,#830);
#850=CARTESIAN_POINT('',(1.00000000000001,40.,0.));
#860=VERTEX_POINT('',#850);
#870=CARTESIAN_POINT('',(0.,39.,0.));
#880=VERTEX_POINT('',#870);
#890=EDGE_CURVE('',#860,#880,#840,.T.);
#900=ORIENTED_EDGE('',*,*,#890,.F.);
#910=CARTESIAN_POINT('',(0.,40.,0.));
#920=DIRECTION('',(0.,-1.,0.));
#930=VECTOR('',#920,1.);
#940=LINE('',#910,#930);
#950=CARTESIAN_POINT('',(0.,1.,0.));
#960=VERTEX_POINT('',#950);
#970=EDGE_CURVE('',#880,#960,#940,.T.);
#980=ORIENTED_EDGE('',*,*,#970,.F.);
#990=CARTESIAN_POINT('',(1.,0.,0.));
#1000=DIRECTION('',(-0.707106781186548,0.707106781186548,0.));
#1010=VECTOR('',#1000,1.);
#1020=LINE('',#990,#1010);
#1030=CARTESIAN_POINT('',(1.,1.11022302462516E-16,0.));
#1040=VERTEX_POINT('',#1030);
#1050=EDGE_CURVE('',#1040,#960,#1020,.T.);
#1060=ORIENTED_EDGE('',*,*,#1050,.T.);
#1070=CARTESIAN_POINT('',(0.,0.,0.));
#1080=DIRECTION('',(1.,0.,0.));
#1090=VECTOR('',#1080,1.);
#1100=LINE('',#1070,#1090);
#1110=CARTESIAN_POINT('',(39.,5.55111512312578E-17,0.));
#1120=VERTEX_POINT('',#1110);
#1130=EDGE_CURVE('',#1040,#1120,#1100,.T.);
#1140=ORIENTED_EDGE('',*,*,#1130,.F.);
#1150=CARTESIAN_POINT('',(39.,0.,0.));
#1160=DIRECTION('',(-0.707106781186548,-0.707106781186548,0.));
#1170=VECTOR('',#1160,1.);
#1180=LINE('',#1150,#1170);
#1190=CARTESIAN_POINT('',(40.,1.,0.));
#1200=VERTEX_POINT('',#1190);
#1210=EDGE_CURVE('',#1200,#1120,#1180,.T.);
#1220=ORIENTED_EDGE('',*,*,#1210,.T.);
#1230=CARTESIAN_POINT('',(40.,0.,0.));
#1240=DIRECTION('',(0.,1.,0.));
#1250=VECTOR('',#1240,1.);
#1260=LINE('',#1230,#1250);
#1270=CARTESIAN_POINT('',(40.,39.,0.));
#1280=VERTEX_POINT('',#1270);
#1290=EDGE_CURVE('',#1200,#1280,#1260,.T.);
#1300=ORIENTED_EDGE('',*,*,#1290,.F.);
#1310=CARTESIAN_POINT('',(79.,0.,0.));
#1320=DIRECTION('',(0.707106781186548,-0.707106781186548,0.));
#1330=VECTOR('',#1320,1.);
#1340=LINE('',#1310,#1330);
#1350=CARTESIAN_POINT('',(39.,40.,0.));
#1360=VERTEX_POINT('',#1350);
#1370=EDGE_CURVE('',#1360,#1280,#1340,.T.);
#1380=ORIENTED_EDGE('',*,*,#1370,.T.);
#1390=CARTESIAN_POINT('',(40.,40.,0.));
#1400=DIRECTION('',(-1.,0.,0.));
#1410=VECTOR('',#1400,1.);
#1420=LINE('',#1390,#1410);
#1430=EDGE_CURVE('',#1360,#860,#1420,.T.);
#1440=ORIENTED_EDGE('',*,*,#1430,.F.);
#1450=EDGE_LOOP('',(#1440,#1380,#1300,#1220,#1140,#1060,#980,#900));
#1460=FACE_OUTER_BOUND('',#1450,.T.);
#1470=ADVANCED_FACE('',(#200,#350,#500,#650,#800,#1460),#50,.F.);
#1480=CARTESIAN_POINT('',(0.,0.,8.));
#1490=DIRECTION('',(0.,0.,1.));
#1500=DIRECTION('',(1.,0.,0.));
#1510=AXIS2_PLACEMENT_3D('',#1480,#1490,#1500);
#1520=PLANE('',#1510);
#1530=CARTESIAN_POINT('',(35.,5.,8.));
#1540=DIRECTION('',(0.,0.,1.));
#1550=DIRECTION('',(1.,0.,0.));
#1560=AXIS2_PLACEMENT_3D('',#1530,#1540,#1550);
#1570=CIRCLE('',#1560,3.25);
#1580=CARTESIAN_POINT('',(38.25,5.,8.));
#1590=VERTEX_POINT('',#1580);
#1600=CARTESIAN_POINT('',(31.75,5.,8.));
#1610=VERTEX_POINT('',#1600);
#1620=EDGE_CURVE('',#1590,#1610,#1570,.T.);
#1630=ORIENTED_EDGE('',*,*,#1620,.F.);
#1640=EDGE_CURVE('',#1610,#1590,#1570,.T.);
#1650=ORIENTED_EDGE('',*,*,#1640,.F.);
#1660=EDGE_LOOP('',(#1650,#1630));
#1670=FACE_BOUND('',#1660,.T.);
#1680=CARTESIAN_POINT('',(5.,5.,8.));
#1690=DIRECTION('',(0.,0.,1.));
#1700=DIRECTION('',(1.,0.,0.));
#1710=AXIS2_PLACEMENT_3D('',#1680,#1690,#1700);
#1720=CIRCLE('',#1710,3.25);
#1730=CARTESIAN_POINT('',(8.25,5.,8.));
#1740=VERTEX_POINT('',#1730);
#1750=CARTESIAN_POINT('',(1.75,5.,8.));
#1760=VERTEX_POINT('',#1750);
#1770=EDGE_CURVE('',#1740,#1760,#1720,.T.);
#1780=ORIENTED_EDGE('',*,*,#1770,.F.);
#1790=EDGE_CURVE('',#1760,#1740,#1720,.T.);
#1800=ORIENTED_EDGE('',*,*,#1790,.F.);
#1810=EDGE_LOOP('',(#1800,#1780));
#1820=FACE_BOUND('',#1810,.T.);
#1830=CARTESIAN_POINT('',(35.,35.,8.));
#1840=DIRECTION('',(0.,0.,1.));
#1850=DIRECTION('',(1.,0.,0.));
#1860=AXIS2_PLACEMENT_3D('',#1830,#1840,#1850);
#1870=CIRCLE('',#1860,3.25);
#1880=CARTESIAN_POINT('',(38.25,35.,8.));
#1890=VERTEX_POINT('',#1880);
#1900=CARTESIAN_POINT('',(31.75,35.,8.));
#1910=VERTEX_POINT('',#1900);
#1920=EDGE_CURVE('',#1890,#1910,#1870,.T.);
#1930=ORIENTED_EDGE('',*,*,#1920,.F.);
#1940=EDGE_CURVE('',#1910,#1890,#1870,.T.);
#1950=ORIENTED_EDGE('',*,*,#1940,.F.);
#1960=EDGE_LOOP('',(#1950,#1930));
#1970=FACE_BOUND('',#1960,.T.);
#1980=CARTESIAN_POINT('',(20.,20.,8.));
#1990=DIRECTION('',(0.,0.,1.));
#2000=DIRECTION('',(1.,0.,0.));
#2010=AXIS2_PLACEMENT_3D('',#1980,#1990,#2000);
#2020=CIRCLE('',#2010,8.331);
#2030=CARTESIAN_POINT('',(28.331,20.,8.));
#2040=VERTEX_POINT('',#2030);
#2050=CARTESIAN_POINT('',(11.669,20.,8.));
#2060=VERTEX_POINT('',#2050);
#2070=EDGE_CURVE('',#2040,#2060,#2020,.T.);
#2080=ORIENTED_EDGE('',*,*,#2070,.F.);
#2090=EDGE_CURVE('',#2060,#2040,#2020,.T.);
#2100=ORIENTED_EDGE('',*,*,#2090,.F.);
#2110=EDGE_LOOP('',(#2100,#2080));
#2120=FACE_BOUND('',#2110,.T.);
#2130=CARTESIAN_POINT('',(5.,35.,8.));
#2140=DIRECTION('',(0.,0.,1.));
#2150=DIRECTION('',(1.,0.,0.));
#2160=AXIS2_PLACEMENT_3D('',#2130,#2140,#2150);
#2170=CIRCLE('',#2160,3.25);
#2180=CARTESIAN_POINT('',(8.25,35.,8.));
#2190=VERTEX_POINT('',#2180);
#2200=CARTESIAN_POINT('',(1.75,35.,8.));
#2210=VERTEX_POINT('',#2200);
#2220=EDGE_CURVE('',#2190,#2210,#2170,.T.);
#2230=ORIENTED_EDGE('',*,*,#2220,.F.);
#2240=EDGE_CURVE('',#2210,#2190,#2170,.T.);
#2250=ORIENTED_EDGE('',*,*,#2240,.F.);
#2260=EDGE_LOOP('',(#2250,#2230));
#2270=FACE_BOUND('',#2260,.T.);
#2280=CARTESIAN_POINT('',(-39.,0.,8.));
#2290=DIRECTION('',(-0.707106781186548,-0.707106781186548,0.));
#2300=VECTOR('',#2290,1.);
#2310=LINE('',#2280,#2300);
#2320=CARTESIAN_POINT('',(1.00000000000001,40.,8.));
#2330=VERTEX_POINT('',#2320);
#2340=CARTESIAN_POINT('',(0.,39.,8.));
#2350=VERTEX_POINT('',#2340);
#2360=EDGE_CURVE('',#2330,#2350,#2310,.T.);
#2370=ORIENTED_EDGE('',*,*,#2360,.T.);
#2380=CARTESIAN_POINT('',(40.,40.,8.));
#2390=DIRECTION('',(-1.,0.,0.));
#2400=VECTOR('',#2390,1.);
#2410=LINE('',#2380,#2400);
#2420=CARTESIAN_POINT('',(39.,40.,8.));
#2430=VERTEX_POINT('',#2420);
#2440=EDGE_CURVE('',#2430,#2330,#2410,.T.);
#2450=ORIENTED_EDGE('',*,*,#2440,.T.);
#2460=CARTESIAN_POINT('',(79.,0.,8.));
#2470=DIRECTION('',(0.707106781186548,-0.707106781186548,0.));
#2480=VECTOR('',#2470,1.);
#2490=LINE('',#2460,#2480);
#2500=CARTESIAN_POINT('',(40.,39.,8.));
#2510=VERTEX_POINT('',#2500);
#2520=EDGE_CURVE('',#2430,#2510,#2490,.T.);
#2530=ORIENTED_EDGE('',*,*,#2520,.F.);
#2540=CARTESIAN_POINT('',(40.,0.,8.));
#2550=DIRECTION('',(0.,1.,0.));
#2560=VECTOR('',#2550,1.);
#2570=LINE('',#2540,#2560);
#2580=CARTESIAN_POINT('',(40.,0.999999999999998,8.));
#2590=VERTEX_POINT('',#2580);
#2600=EDGE_CURVE('',#2590,#2510,#2570,.T.);
#2610=ORIENTED_EDGE('',*,*,#2600,.T.);
#2620=CARTESIAN_POINT('',(39.,0.,8.));
#2630=DIRECTION('',(-0.707106781186548,-0.707106781186548,0.));
#2640=VECTOR('',#2630,1.);
#2650=LINE('',#2620,#2640);
#2660=CARTESIAN_POINT('',(39.,5.55111512312578E-17,8.));
#2670=VERTEX_POINT('',#2660);
#2680=EDGE_CURVE('',#2590,#2670,#2650,.T.);
#2690=ORIENTED_EDGE('',*,*,#2680,.F.);
#2700=CARTESIAN_POINT('',(0.,0.,8.));
#2710=DIRECTION('',(1.,0.,0.));
#2720=VECTOR('',#2710,1.);
#2730=LINE('',#2700,#2720);
#2740=CARTESIAN_POINT('',(1.,1.11022302462516E-16,8.));
#2750=VERTEX_POINT('',#2740);
#2760=EDGE_CURVE('',#2750,#2670,#2730,.T.);
#2770=ORIENTED_EDGE('',*,*,#2760,.T.);
#2780=CARTESIAN_POINT('',(1.,0.,8.));
#2790=DIRECTION('',(-0.707106781186548,0.707106781186548,0.));
#2800=VECTOR('',#2790,1.);
#2810=LINE('',#2780,#2800);
#2820=CARTESIAN_POINT('',(0.,1.,8.));
#2830=VERTEX_POINT('',#2820);
#2840=EDGE_CURVE('',#2750,#2830,#2810,.T.);
#2850=ORIENTED_EDGE('',*,*,#2840,.F.);
#2860=CARTESIAN_POINT('',(0.,40.,8.));
#2870=DIRECTION('',(0.,-1.,0.));
#2880=VECTOR('',#2870,1.);
#2890=LINE('',#2860,#2880);
#2900=EDGE_CURVE('',#2350,#2830,#2890,.T.);
#2910=ORIENTED_EDGE('',*,*,#2900,.T.);
#2920=EDGE_LOOP('',(#2910,#2850,#2770,#2690,#2610,#2530,#2450,#2370));
#2930=FACE_OUTER_BOUND('',#2920,.T.);
#2940=ADVANCED_FACE('',(#1670,#1820,#1970,#2120,#2270,#2930),#1520,.T.);
#2950=CARTESIAN_POINT('',(0.,0.,0.));
#2960=DIRECTION('',(-1.,0.,0.));
#2970=DIRECTION('',(0.,1.,0.));
#2980=AXIS2_PLACEMENT_3D('',#2950,#2960,#2970);
#2990=PLANE('',#2980);
#3000=ORIENTED_EDGE('',*,*,#2900,.F.);
#3010=CARTESIAN_POINT('',(0.,1.,4.));
#3020=DIRECTION('',(0.,0.,1.));
#3030=VECTOR('',#3020,1.);
#3040=LINE('',#3010,#3030);
#3050=EDGE_CURVE('',#960,#2830,#3040,.T.);
#3060=ORIENTED_EDGE('',*,*,#3050,.T.);
#3070=ORIENTED_EDGE('',*,*,#970,.T.);
#3080=CARTESIAN_POINT('',(0.,39.,4.));
#3090=DIRECTION('',(0.,0.,1.));
#3100=VECTOR('',#3090,1.);
#3110=LINE('',#3080,#3100);
#3120=EDGE_CURVE('',#880,#2350,#3110,.T.);
#3130=ORIENTED_EDGE('',*,*,#3120,.F.);
#3140=EDGE_LOOP('',(#3130,#3070,#3060,#3000));
#3150=FACE_OUTER_BOUND('',#3140,.T.);
#3160=ADVANCED_FACE('',(#3150),#2990,.T.);
#3170=CARTESIAN_POINT('',(40.,0.,0.));
#3180=DIRECTION('',(-0.,-1.,-0.));
#3190=DIRECTION('',(-1.,0.,0.));
#3200=AXIS2_PLACEMENT_3D('',#3170,#3180,#3190);
#3210=PLANE('',#3200);
#3220=ORIENTED_EDGE('',*,*,#1130,.T.);
#3230=CARTESIAN_POINT('',(1.,0.,4.));
#3240=DIRECTION('',(0.,0.,1.));
#3250=VECTOR('',#3240,1.);
#3260=LINE('',#3230,#3250);
#3270=EDGE_CURVE('',#1040,#2750,#3260,.T.);
#3280=ORIENTED_EDGE('',*,*,#3270,.F.);
#3290=ORIENTED_EDGE('',*,*,#2760,.F.);
#3300=CARTESIAN_POINT('',(39.,0.,4.));
#3310=DIRECTION('',(0.,0.,1.));
#3320=VECTOR('',#3310,1.);
#3330=LINE('',#3300,#3320);
#3340=EDGE_CURVE('',#1120,#2670,#3330,.T.);
#3350=ORIENTED_EDGE('',*,*,#3340,.T.);
#3360=EDGE_LOOP('',(#3350,#3290,#3280,#3220));
#3370=FACE_OUTER_BOUND('',#3360,.T.);
#3380=ADVANCED_FACE('',(#3370),#3210,.T.);
#3390=CARTESIAN_POINT('',(40.,40.,0.));
#3400=DIRECTION('',(1.,0.,0.));
#3410=DIRECTION('',(0.,-1.,0.));
#3420=AXIS2_PLACEMENT_3D('',#3390,#3400,#3410);
#3430=PLANE('',#3420);
#3440=ORIENTED_EDGE('',*,*,#1290,.T.);
#3450=CARTESIAN_POINT('',(40.,1.,4.));
#3460=DIRECTION('',(0.,0.,1.));
#3470=VECTOR('',#3460,1.);
#3480=LINE('',#3450,#3470);
#3490=EDGE_CURVE('',#1200,#2590,#3480,.T.);
#3500=ORIENTED_EDGE('',*,*,#3490,.F.);
#3510=ORIENTED_EDGE('',*,*,#2600,.F.);
#3520=CARTESIAN_POINT('',(40.,39.,4.));
#3530=DIRECTION('',(0.,0.,1.));
#3540=VECTOR('',#3530,1.);
#3550=LINE('',#3520,#3540);
#3560=EDGE_CURVE('',#1280,#2510,#3550,.T.);
#3570=ORIENTED_EDGE('',*,*,#3560,.T.);
#3580=EDGE_LOOP('',(#3570,#3510,#3500,#3440));
#3590=FACE_OUTER_BOUND('',#3580,.T.);
#3600=ADVANCED_FACE('',(#3590),#3430,.T.);
#3610=CARTESIAN_POINT('',(0.,40.,0.));
#3620=DIRECTION('',(-0.,1.,0.));
#3630=DIRECTION('',(1.,0.,0.));
#3640=AXIS2_PLACEMENT_3D('',#3610,#3620,#3630);
#3650=PLANE('',#3640);
#3660=CARTESIAN_POINT('',(39.,40.,4.));
#3670=DIRECTION('',(0.,0.,1.));
#3680=VECTOR('',#3670,1.);
#3690=LINE('',#3660,#3680);
#3700=EDGE_CURVE('',#1360,#2430,#3690,.T.);
#3710=ORIENTED_EDGE('',*,*,#3700,.F.);
#3720=ORIENTED_EDGE('',*,*,#2440,.F.);
#3730=CARTESIAN_POINT('',(1.,40.,4.));
#3740=DIRECTION('',(0.,0.,1.));
#3750=VECTOR('',#3740,1.);
#3760=LINE('',#3730,#3750);
#3770=EDGE_CURVE('',#860,#2330,#3760,.T.);
#3780=ORIENTED_EDGE('',*,*,#3770,.T.);
#3790=ORIENTED_EDGE('',*,*,#1430,.T.);
#3800=EDGE_LOOP('',(#3790,#3780,#3720,#3710));
#3810=FACE_OUTER_BOUND('',#3800,.T.);
#3820=ADVANCED_FACE('',(#3810),#3650,.T.);
#3830=CARTESIAN_POINT('',(0.5,0.5,4.));
#3840=DIRECTION('',(-0.707106781186548,-0.707106781186548,0.));
#3850=DIRECTION('',(0.707106781186547,-0.707106781186547,0.));
#3860=AXIS2_PLACEMENT_3D('',#3830,#3840,#3850);
#3870=PLANE('',#3860);
#3880=ORIENTED_EDGE('',*,*,#2840,.T.);
#3890=ORIENTED_EDGE('',*,*,#3270,.T.);
#3900=ORIENTED_EDGE('',*,*,#1050,.F.);
#3910=ORIENTED_EDGE('',*,*,#3050,.F.);
#3920=EDGE_LOOP('',(#3910,#3900,#3890,#3880));
#3930=FACE_OUTER_BOUND('',#3920,.T.);
#3940=ADVANCED_FACE('',(#3930),#3870,.T.);
#3950=CARTESIAN_POINT('',(0.5,39.5,4.));
#3960=DIRECTION('',(0.707106781186548,-0.707106781186548,0.));
#3970=DIRECTION('',(0.707106781186547,0.707106781186547,0.));
#3980=AXIS2_PLACEMENT_3D('',#3950,#3960,#3970);
#3990=PLANE('',#3980);
#4000=ORIENTED_EDGE('',*,*,#890,.T.);
#4010=ORIENTED_EDGE('',*,*,#3770,.F.);
#4020=ORIENTED_EDGE('',*,*,#2360,.F.);
#4030=ORIENTED_EDGE('',*,*,#3120,.T.);
#4040=EDGE_LOOP('',(#4030,#4020,#4010,#4000));
#4050=FACE_OUTER_BOUND('',#4040,.T.);
#4060=ADVANCED_FACE('',(#4050),#3990,.F.);
#4070=CARTESIAN_POINT('',(39.5,39.5,4.));
#4080=DIRECTION('',(0.707106781186548,0.707106781186548,-0.));
#4090=DIRECTION('',(-0.707106781186547,0.707106781186547,0.));
#4100=AXIS2_PLACEMENT_3D('',#4070,#4080,#4090);
#4110=PLANE('',#4100);
#4120=ORIENTED_EDGE('',*,*,#2520,.T.);
#4130=ORIENTED_EDGE('',*,*,#3700,.T.);
#4140=ORIENTED_EDGE('',*,*,#1370,.F.);
#4150=ORIENTED_EDGE('',*,*,#3560,.F.);
#4160=EDGE_LOOP('',(#4150,#4140,#4130,#4120));
#4170=FACE_OUTER_BOUND('',#4160,.T.);
#4180=ADVANCED_FACE('',(#4170),#4110,.T.);
#4190=CARTESIAN_POINT('',(39.5,0.5,4.));
#4200=DIRECTION('',(0.707106781186548,-0.707106781186548,0.));
#4210=DIRECTION('',(0.707106781186547,0.707106781186547,0.));
#4220=AXIS2_PLACEMENT_3D('',#4190,#4200,#4210);
#4230=PLANE('',#4220);
#4240=ORIENTED_EDGE('',*,*,#2680,.T.);
#4250=ORIENTED_EDGE('',*,*,#3490,.T.);
#4260=ORIENTED_EDGE('',*,*,#1210,.F.);
#4270=ORIENTED_EDGE('',*,*,#3340,.F.);
#4280=EDGE_LOOP('',(#4270,#4260,#4250,#4240));
#4290=FACE_OUTER_BOUND('',#4280,.T.);
#4300=ADVANCED_FACE('',(#4290),#4230,.T.);
#4310=CARTESIAN_POINT('',(35.,35.,-342.));
#4320=DIRECTION('',(0.,0.,1.));
#4330=DIRECTION('',(1.,0.,0.));
#4340=AXIS2_PLACEMENT_3D('',#4310,#4320,#4330);
#4350=CYLINDRICAL_SURFACE('',#4340,3.25);
#4360=CARTESIAN_POINT('',(38.25,35.,-342.));
#4370=DIRECTION('',(0.,0.,1.));
#4380=VECTOR('',#4370,1.);
#4390=LINE('',#4360,#4380);
#4400=EDGE_CURVE('',#420,#1890,#4390,.T.);
#4410=ORIENTED_EDGE('',*,*,#4400,.F.);
#4420=ORIENTED_EDGE('',*,*,#1940,.T.);
#4430=CARTESIAN_POINT('',(31.75,35.,-342.));
#4440=DIRECTION('',(0.,0.,1.));
#4450=VECTOR('',#4440,1.);
#4460=LINE('',#4430,#4450);
#4470=EDGE_CURVE('',#440,#1910,#4460,.T.);
#4480=ORIENTED_EDGE('',*,*,#4470,.T.);
#4490=ORIENTED_EDGE('',*,*,#470,.F.);
#4500=EDGE_LOOP('',(#4490,#4480,#4420,#4410));
#4510=FACE_OUTER_BOUND('',#4500,.T.);
#4520=ADVANCED_FACE('',(#4510),#4350,.F.);
#4530=CARTESIAN_POINT('',(35.,5.,-342.));
#4540=DIRECTION('',(0.,0.,1.));
#4550=DIRECTION('',(1.,0.,0.));
#4560=AXIS2_PLACEMENT_3D('',#4530,#4540,#4550);
#4570=CYLINDRICAL_SURFACE('',#4560,3.25);
#4580=CARTESIAN_POINT('',(38.25,5.,-342.));
#4590=DIRECTION('',(0.,0.,1.));
#4600=VECTOR('',#4590,1.);
#4610=LINE('',#4580,#4600);
#4620=EDGE_CURVE('',#120,#1590,#4610,.T.);
#4630=ORIENTED_EDGE('',*,*,#4620,.F.);
#4640=ORIENTED_EDGE('',*,*,#1640,.T.);
#4650=CARTESIAN_POINT('',(31.75,5.,-342.));
#4660=DIRECTION('',(0.,0.,1.));
#4670=VECTOR('',#4660,1.);
#4680=LINE('',#4650,#4670);
#4690=EDGE_CURVE('',#140,#1610,#4680,.T.);
#4700=ORIENTED_EDGE('',*,*,#4690,.T.);
#4710=ORIENTED_EDGE('',*,*,#170,.F.);
#4720=EDGE_LOOP('',(#4710,#4700,#4640,#4630));
#4730=FACE_OUTER_BOUND('',#4720,.T.);
#4740=ADVANCED_FACE('',(#4730),#4570,.F.);
#4750=CARTESIAN_POINT('',(5.,5.,-342.));
#4760=DIRECTION('',(0.,0.,1.));
#4770=DIRECTION('',(1.,0.,0.));
#4780=AXIS2_PLACEMENT_3D('',#4750,#4760,#4770);
#4790=CYLINDRICAL_SURFACE('',#4780,3.25);
#4800=CARTESIAN_POINT('',(8.25,5.,-342.));
#4810=DIRECTION('',(0.,0.,1.));
#4820=VECTOR('',#4810,1.);
#4830=LINE('',#4800,#4820);
#4840=EDGE_CURVE('',#270,#1740,#4830,.T.);
#4850=ORIENTED_EDGE('',*,*,#4840,.F.);
#4860=ORIENTED_EDGE('',*,*,#1790,.T.);
#4870=CARTESIAN_POINT('',(1.75,5.,-342.));
#4880=DIRECTION('',(0.,0.,1.));
#4890=VECTOR('',#4880,1.);
#4900=LINE('',#4870,#4890);
#4910=EDGE_CURVE('',#290,#1760,#4900,.T.);
#4920=ORIENTED_EDGE('',*,*,#4910,.T.);
#4930=ORIENTED_EDGE('',*,*,#320,.F.);
#4940=EDGE_LOOP('',(#4930,#4920,#4860,#4850));
#4950=FACE_OUTER_BOUND('',#4940,.T.);
#4960=ADVANCED_FACE('',(#4950),#4790,.F.);
#4970=CARTESIAN_POINT('',(5.,35.,-342.));
#4980=DIRECTION('',(0.,0.,1.));
#4990=DIRECTION('',(1.,0.,0.));
#5000=AXIS2_PLACEMENT_3D('',#4970,#4980,#4990);
#5010=CYLINDRICAL_SURFACE('',#5000,3.25);
#5020=CARTESIAN_POINT('',(8.25,35.,-342.));
#5030=DIRECTION('',(0.,0.,1.));
#5040=VECTOR('',#5030,1.);
#5050=LINE('',#5020,#5040);
#5060=EDGE_CURVE('',#720,#2190,#5050,.T.);
#5070=ORIENTED_EDGE('',*,*,#5060,.F.);
#5080=ORIENTED_EDGE('',*,*,#2240,.T.);
#5090=CARTESIAN_POINT('',(1.75,35.,-342.));
#5100=DIRECTION('',(0.,0.,1.));
#5110=VECTOR('',#5100,1.);
#5120=LINE('',#5090,#5110);
#5130=EDGE_CURVE('',#740,#2210,#5120,.T.);
#5140=ORIENTED_EDGE('',*,*,#5130,.T.);
#5150=ORIENTED_EDGE('',*,*,#770,.F.);
#5160=EDGE_LOOP('',(#5150,#5140,#5080,#5070));
#5170=FACE_OUTER_BOUND('',#5160,.T.);
#5180=ADVANCED_FACE('',(#5170),#5010,.F.);
#5190=CARTESIAN_POINT('',(20.,20.,8.));
#5200=DIRECTION('',(0.,0.,1.));
#5210=DIRECTION('',(1.,0.,0.));
#5220=AXIS2_PLACEMENT_3D('',#5190,#5200,#5210);
#5230=CYLINDRICAL_SURFACE('',#5220,7.475);
#5240=CARTESIAN_POINT('',(12.525,20.,8.));
#5250=DIRECTION('',(0.,0.,1.));
#5260=VECTOR('',#5250,1.);
#5270=LINE('',#5240,#5260);
#5280=CARTESIAN_POINT('',(12.525,20.,0.494212));
#5290=VERTEX_POINT('',#5280);
#5300=CARTESIAN_POINT('',(12.525,20.,7.50578816957368));
#5310=VERTEX_POINT('',#5300);
#5320=EDGE_CURVE('',#5290,#5310,#5270,.T.);
#5330=ORIENTED_EDGE('',*,*,#5320,.T.);
#5340=CARTESIAN_POINT('',(20.,20.,0.494212));
#5350=DIRECTION('',(0.,0.,1.));
#5360=DIRECTION('',(1.,0.,0.));
#5370=AXIS2_PLACEMENT_3D('',#5340,#5350,#5360);
#5380=CIRCLE('',#5370,7.475);
#5390=CARTESIAN_POINT('',(27.475,20.,0.494211999999999));
#5400=VERTEX_POINT('',#5390);
#5410=EDGE_CURVE('',#5290,#5400,#5380,.T.);
#5420=ORIENTED_EDGE('',*,*,#5410,.F.);
#5430=CARTESIAN_POINT('',(27.475,20.,8.));
#5440=DIRECTION('',(0.,0.,1.));
#5450=VECTOR('',#5440,1.);
#5460=LINE('',#5430,#5450);
#5470=CARTESIAN_POINT('',(27.475,20.,7.50578816957368));
#5480=VERTEX_POINT('',#5470);
#5490=EDGE_CURVE('',#5400,#5480,#5460,.T.);
#5500=ORIENTED_EDGE('',*,*,#5490,.F.);
#5510=CARTESIAN_POINT('',(20.,20.,7.50578816957368));
#5520=DIRECTION('',(0.,0.,1.));
#5530=DIRECTION('',(1.,0.,0.));
#5540=AXIS2_PLACEMENT_3D('',#5510,#5520,#5530);
#5550=CIRCLE('',#5540,7.475);
#5560=EDGE_CURVE('',#5310,#5480,#5550,.T.);
#5570=ORIENTED_EDGE('',*,*,#5560,.T.);
#5580=EDGE_LOOP('',(#5570,#5500,#5420,#5330));
#5590=FACE_OUTER_BOUND('',#5580,.T.);
#5600=ADVANCED_FACE('0.655984-19_1817774',(#5590),#5230,.F.);
#5610=COLOUR_RGB('',1.,0.,0.);
#5620=FILL_AREA_STYLE_COLOUR('',#5610);
#5630=FILL_AREA_STYLE('',(#5620));
#5640=SURFACE_STYLE_FILL_AREA(#5630);
#5650=SURFACE_SIDE_STYLE('',(#5640));
#5660=SURFACE_STYLE_USAGE(.BOTH.,#5650);
#5670=PRESENTATION_STYLE_ASSIGNMENT((#5660));
#5680=CARTESIAN_POINT('',(20.,20.,7.50578816957368));
#5690=DIRECTION('',(0.,0.,1.));
#5700=DIRECTION('',(1.,0.,0.));
#5710=AXIS2_PLACEMENT_3D('',#5680,#5690,#5700);
#5720=CONICAL_SURFACE('',#5710,7.475,1.0471975511966);
#5730=CARTESIAN_POINT('',(27.475,20.,7.50578816957368));
#5740=DIRECTION('',(0.866025403784439,0.,0.5));
#5750=VECTOR('',#5740,8.63138652438491);
#5760=LINE('',#5730,#5750);
#5770=EDGE_CURVE('',#5480,#2040,#5760,.T.);
#5780=ORIENTED_EDGE('',*,*,#5770,.F.);
#5790=ORIENTED_EDGE('',*,*,#2090,.T.);
#5800=CARTESIAN_POINT('',(12.525,20.,7.50578816957368));
#5810=DIRECTION('',(-0.866025403784439,0.,0.5));
#5820=VECTOR('',#5810,8.63138652438491);
#5830=LINE('',#5800,#5820);
#5840=EDGE_CURVE('',#5310,#2060,#5830,.T.);
#5850=ORIENTED_EDGE('',*,*,#5840,.T.);
#5860=ORIENTED_EDGE('',*,*,#5560,.F.);
#5870=EDGE_LOOP('',(#5860,#5850,#5790,#5780));
#5880=FACE_OUTER_BOUND('',#5870,.T.);
#5890=ADVANCED_FACE('',(#5880),#5720,.F.);
#5900=CARTESIAN_POINT('',(20.,20.,0.494212));
#5910=DIRECTION('',(0.,0.,-1.));
#5920=DIRECTION('',(-1.,0.,0.));
#5930=AXIS2_PLACEMENT_3D('',#5900,#5910,#5920);
#5940=CONICAL_SURFACE('',#5930,7.475,1.0471975511966);
#5950=CARTESIAN_POINT('',(12.525,20.,0.494212));
#5960=DIRECTION('',(-0.866025403784438,0.,-0.5));
#5970=VECTOR('',#5960,8.63138652438491);
#5980=LINE('',#5950,#5970);
#5990=EDGE_CURVE('',#5290,#590,#5980,.T.);
#6000=ORIENTED_EDGE('',*,*,#5990,.F.);
#6010=ORIENTED_EDGE('',*,*,#620,.F.);
#6020=CARTESIAN_POINT('',(27.475,20.,0.494212));
#6030=DIRECTION('',(0.866025403784438,0.,-0.5));
#6040=VECTOR('',#6030,8.63138652438491);
#6050=LINE('',#6020,#6040);
#6060=EDGE_CURVE('',#5400,#570,#6050,.T.);
#6070=ORIENTED_EDGE('',*,*,#6060,.T.);
#6080=ORIENTED_EDGE('',*,*,#5410,.T.);
#6090=EDGE_LOOP('',(#6080,#6070,#6010,#6000));
#6100=FACE_OUTER_BOUND('',#6090,.T.);
#6110=ADVANCED_FACE('',(#6100),#5940,.F.);
#6120=CARTESIAN_POINT('',(35.,5.,-342.));
#6130=DIRECTION('',(0.,0.,1.));
#6140=DIRECTION('',(1.,0.,0.));
#6150=AXIS2_PLACEMENT_3D('',#6120,#6130,#6140);
#6160=CYLINDRICAL_SURFACE('',#6150,3.25);
#6170=ORIENTED_EDGE('',*,*,#150,.F.);
#6180=ORIENTED_EDGE('',*,*,#4690,.F.);
#6190=ORIENTED_EDGE('',*,*,#1620,.T.);
#6200=ORIENTED_EDGE('',*,*,#4620,.T.);
#6210=EDGE_LOOP('',(#6200,#6190,#6180,#6170));
#6220=FACE_OUTER_BOUND('',#6210,.T.);
#6230=ADVANCED_FACE('',(#6220),#6160,.F.);
#6240=CARTESIAN_POINT('',(20.,20.,0.494212));
#6250=DIRECTION('',(0.,0.,-1.));
#6260=DIRECTION('',(-1.,0.,0.));
#6270=AXIS2_PLACEMENT_3D('',#6240,#6250,#6260);
#6280=CONICAL_SURFACE('',#6270,7.475,1.0471975511966);
#6290=EDGE_CURVE('',#5400,#5290,#5380,.T.);
#6300=ORIENTED_EDGE('',*,*,#6290,.T.);
#6310=ORIENTED_EDGE('',*,*,#6060,.F.);
#6320=ORIENTED_EDGE('',*,*,#600,.F.);
#6330=ORIENTED_EDGE('',*,*,#5990,.T.);
#6340=EDGE_LOOP('',(#6330,#6320,#6310,#6300));
#6350=FACE_OUTER_BOUND('',#6340,.T.);
#6360=ADVANCED_FACE('',(#6350),#6280,.F.);
#6370=CARTESIAN_POINT('',(5.,5.,-342.));
#6380=DIRECTION('',(0.,0.,1.));
#6390=DIRECTION('',(1.,0.,0.));
#6400=AXIS2_PLACEMENT_3D('',#6370,#6380,#6390);
#6410=CYLINDRICAL_SURFACE('',#6400,3.25);
#6420=ORIENTED_EDGE('',*,*,#300,.F.);
#6430=ORIENTED_EDGE('',*,*,#4910,.F.);
#6440=ORIENTED_EDGE('',*,*,#1770,.T.);
#6450=ORIENTED_EDGE('',*,*,#4840,.T.);
#6460=EDGE_LOOP('',(#6450,#6440,#6430,#6420));
#6470=FACE_OUTER_BOUND('',#6460,.T.);
#6480=ADVANCED_FACE('',(#6470),#6410,.F.);
#6490=CARTESIAN_POINT('',(5.,35.,-342.));
#6500=DIRECTION('',(0.,0.,1.));
#6510=DIRECTION('',(1.,0.,0.));
#6520=AXIS2_PLACEMENT_3D('',#6490,#6500,#6510);
#6530=CYLINDRICAL_SURFACE('',#6520,3.25);
#6540=ORIENTED_EDGE('',*,*,#750,.F.);
#6550=ORIENTED_EDGE('',*,*,#5130,.F.);
#6560=ORIENTED_EDGE('',*,*,#2220,.T.);
#6570=ORIENTED_EDGE('',*,*,#5060,.T.);
#6580=EDGE_LOOP('',(#6570,#6560,#6550,#6540));
#6590=FACE_OUTER_BOUND('',#6580,.T.);
#6600=ADVANCED_FACE('',(#6590),#6530,.F.);
#6610=CARTESIAN_POINT('',(20.,20.,7.50578816957368));
#6620=DIRECTION('',(0.,0.,1.));
#6630=DIRECTION('',(1.,0.,0.));
#6640=AXIS2_PLACEMENT_3D('',#6610,#6620,#6630);
#6650=CONICAL_SURFACE('',#6640,7.475,1.0471975511966);
#6660=EDGE_CURVE('',#5480,#5310,#5550,.T.);
#6670=ORIENTED_EDGE('',*,*,#6660,.F.);
#6680=ORIENTED_EDGE('',*,*,#5840,.F.);
#6690=ORIENTED_EDGE('',*,*,#2070,.T.);
#6700=ORIENTED_EDGE('',*,*,#5770,.T.);
#6710=EDGE_LOOP('',(#6700,#6690,#6680,#6670));
#6720=FACE_OUTER_BOUND('',#6710,.T.);
#6730=ADVANCED_FACE('',(#6720),#6650,.F.);
#6740=CARTESIAN_POINT('',(20.,20.,8.));
#6750=DIRECTION('',(0.,0.,1.));
#6760=DIRECTION('',(1.,0.,0.));
#6770=AXIS2_PLACEMENT_3D('',#6740,#6750,#6760);
#6780=CYLINDRICAL_SURFACE('',#6770,7.475);
#6790=ORIENTED_EDGE('',*,*,#6290,.F.);
#6800=ORIENTED_EDGE('',*,*,#5320,.F.);
#6810=ORIENTED_EDGE('',*,*,#6660,.T.);
#6820=ORIENTED_EDGE('',*,*,#5490,.T.);
#6830=EDGE_LOOP('',(#6820,#6810,#6800,#6790));
#6840=FACE_OUTER_BOUND('',#6830,.T.);
#6850=ADVANCED_FACE('',(#6840),#6780,.F.);
#6860=COLOUR_RGB('',1.,0.,0.);
#6870=FILL_AREA_STYLE_COLOUR('',#6860);
#6880=FILL_AREA_STYLE('',(#6870));
#6890=SURFACE_STYLE_FILL_AREA(#6880);
#6900=SURFACE_SIDE_STYLE('',(#6890));
#6910=SURFACE_STYLE_USAGE(.BOTH.,#6900);
#6920=PRESENTATION_STYLE_ASSIGNMENT((#6910));
#6930=CARTESIAN_POINT('',(35.,35.,-342.));
#6940=DIRECTION('',(0.,0.,1.));
#6950=DIRECTION('',(1.,0.,0.));
#6960=AXIS2_PLACEMENT_3D('',#6930,#6940,#6950);
#6970=CYLINDRICAL_SURFACE('',#6960,3.25);
#6980=ORIENTED_EDGE('',*,*,#450,.F.);
#6990=ORIENTED_EDGE('',*,*,#4470,.F.);
#7000=ORIENTED_EDGE('',*,*,#1920,.T.);
#7010=ORIENTED_EDGE('',*,*,#4400,.T.);
#7020=EDGE_LOOP('',(#7010,#7000,#6990,#6980));
#7030=FACE_OUTER_BOUND('',#7020,.T.);
#7040=ADVANCED_FACE('',(#7030),#6970,.F.);
#7050=CLOSED_SHELL('',(#3160,#3380,#3600,#3820,#3940,#4060,#4180,#4300,
#4520,#4740,#4960,#5180,#5600,#5890,#6110,#6230,#6360,#6480,#6600,#6730,
#6850,#7040,#2940,#1470));
#7060=MANIFOLD_SOLID_BREP('',#7050);
#7070=CARTESIAN_POINT('',(0.,0.,0.));
#7080=DIRECTION('',(0.,0.,1.));
#7090=DIRECTION('',(1.,0.,0.));
#7100=AXIS2_PLACEMENT_3D('',#7070,#7080,#7090);
#7110=APPLICATION_CONTEXT(' ');
#7120=APPLICATION_PROTOCOL_DEFINITION(' ','automotive_design',1998,#7110
);
#7130=PRODUCT_CONTEXT('',#7110,'mechanical');
#7140=PRODUCT_DEFINITION_CONTEXT('part definition',#7110,'design');
#7150=PRODUCT('Anschlussplatte-MMS-44_G38_44.0380_PX175569',
'Anschlussplatte-MMS-44_G38_44.0380_PX175569','',(#7130));
#7160=PRODUCT_RELATED_PRODUCT_CATEGORY('part',' ',(#7150));
#7170=PRODUCT_DEFINITION_FORMATION_WITH_SPECIFIED_SOURCE('','',#7150,
.BOUGHT.);
#7180=PRODUCT_DEFINITION('',' ',#7170,#7140);
#7190=PRODUCT_DEFINITION_SHAPE('','',#7180);
#7200=DIMENSIONAL_EXPONENTS(1.,0.,0.,0.,0.,0.,0.);
#7210=DIMENSIONAL_EXPONENTS(0.,0.,0.,0.,0.,0.,0.);
#7220=DIMENSIONAL_EXPONENTS(0.,0.,0.,0.,0.,0.,0.);
#7230=(LENGTH_UNIT() NAMED_UNIT(*) SI_UNIT(.MILLI.,.METRE.));
#7240=(NAMED_UNIT(*) PLANE_ANGLE_UNIT() SI_UNIT($,.RADIAN.));
#7250=(NAMED_UNIT(*) SI_UNIT($,.STERADIAN.) SOLID_ANGLE_UNIT());
#7260=(GEOMETRIC_REPRESENTATION_CONTEXT(3) 
GLOBAL_UNCERTAINTY_ASSIGNED_CONTEXT((#7270)) 
GLOBAL_UNIT_ASSIGNED_CONTEXT((#7230,#7240,#7250)) REPRESENTATION_CONTEXT
('',''));
#7270=UNCERTAINTY_MEASURE_WITH_UNIT(LENGTH_MEASURE(1.E-6),#7230,
'distance_accuracy_value','maximum gap value');
#7280=ADVANCED_BREP_SHAPE_REPRESENTATION('',(#7100,#7060),#7260);
#7290=SHAPE_DEFINITION_REPRESENTATION(#7190,#7280);
#7300=COLOUR_RGB('',0.690196096897125,0.886274576187134,1.);
#7310=FILL_AREA_STYLE_COLOUR('',#7300);
#7320=FILL_AREA_STYLE('',(#7310));
#7330=SURFACE_STYLE_FILL_AREA(#7320);
#7340=SURFACE_SIDE_STYLE('',(#7330));
#7350=SURFACE_STYLE_USAGE(.BOTH.,#7340);
#7360=PRESENTATION_STYLE_ASSIGNMENT((#7350));
#7370=STYLED_ITEM('',(#7360),#7060);
#7380=OVER_RIDING_STYLED_ITEM('',(#5670),#5600,#7370);
#7390=OVER_RIDING_STYLED_ITEM('',(#6920),#6850,#7370);
#7400=DRAUGHTING_MODEL('',(#7370,#7380,#7390),#7260);
ENDSEC;
END-ISO-10303-21;
