ISO-10303-21;
HEADER;
FILE_DESCRIPTION(('Creo Elements/Direct Modeling STEP Export'),'2;1');
FILE_NAME(
'//KR-CAD2/PhoenixTemp/karl.letzgus/Konvertierung/55.0030.4_Rechteckprof
il-MMS-55_15x50mm.stp','2022-03-21T 8:06:00',(''),(''),
'PTC Creo Elements/Direct Modeling STEP processor for AP214 (Solid Model
)',
'PTC Creo Elements/Direct Modeling 19.0C  15-Aug-2015 (C) Parametric Tec
hnology GmbH','');
FILE_SCHEMA(('AUTOMOTIVE_DESIGN { 1 0 10303 214 1 1 1 1 }'));
ENDSEC;
DATA;
#10=CARTESIAN_POINT('',(0.,0.,0.));
#20=DIRECTION('',(0.,0.,1.));
#30=DIRECTION('',(1.,0.,0.));
#40=AXIS2_PLACEMENT_3D('',#10,#20,#30);
#50=PLANE('',#40);
#60=CARTESIAN_POINT('',(43.5,7.5,0.));
#70=DIRECTION('',(0.,0.,1.));
#80=DIRECTION('',(1.,0.,0.));
#90=AXIS2_PLACEMENT_3D('',#60,#70,#80);
#100=CIRCLE('',#90,3.4);
#110=CARTESIAN_POINT('',(46.9,7.5,0.));
#120=VERTEX_POINT('',#110);
#130=CARTESIAN_POINT('',(40.1,7.5,0.));
#140=VERTEX_POINT('',#130);
#150=EDGE_CURVE('',#120,#140,#100,.T.);
#160=ORIENTED_EDGE('',*,*,#150,.T.);
#170=EDGE_CURVE('',#140,#120,#100,.T.);
#180=ORIENTED_EDGE('',*,*,#170,.T.);
#190=EDGE_LOOP('',(#180,#160));
#200=FACE_BOUND('',#190,.T.);
#210=CARTESIAN_POINT('',(43.5,42.5,0.));
#220=DIRECTION('',(0.,0.,1.));
#230=DIRECTION('',(1.,0.,0.));
#240=AXIS2_PLACEMENT_3D('',#210,#220,#230);
#250=CIRCLE('',#240,3.4);
#260=CARTESIAN_POINT('',(46.9,42.5,0.));
#270=VERTEX_POINT('',#260);
#280=CARTESIAN_POINT('',(40.1,42.5,0.));
#290=VERTEX_POINT('',#280);
#300=EDGE_CURVE('',#270,#290,#250,.T.);
#310=ORIENTED_EDGE('',*,*,#300,.T.);
#320=EDGE_CURVE('',#290,#270,#250,.T.);
#330=ORIENTED_EDGE('',*,*,#320,.T.);
#340=EDGE_LOOP('',(#330,#310));
#350=FACE_BOUND('',#340,.T.);
#360=CARTESIAN_POINT('',(37.6,48.4,0.));
#370=DIRECTION('',(0.,0.,-1.));
#380=DIRECTION('',(-1.,0.,0.));
#390=AXIS2_PLACEMENT_3D('',#360,#370,#380);
#400=CIRCLE('',#390,1.6);
#410=CARTESIAN_POINT('',(36.,48.4,0.));
#420=VERTEX_POINT('',#410);
#430=CARTESIAN_POINT('',(37.6,50.,0.));
#440=VERTEX_POINT('',#430);
#450=EDGE_CURVE('',#420,#440,#400,.T.);
#460=ORIENTED_EDGE('',*,*,#450,.T.);
#470=CARTESIAN_POINT('',(36.,0.,0.));
#480=DIRECTION('',(0.,1.,0.));
#490=VECTOR('',#480,1.);
#500=LINE('',#470,#490);
#510=CARTESIAN_POINT('',(36.,1.6,0.));
#520=VERTEX_POINT('',#510);
#530=EDGE_CURVE('',#520,#420,#500,.T.);
#540=ORIENTED_EDGE('',*,*,#530,.T.);
#550=CARTESIAN_POINT('',(37.6,1.6,0.));
#560=DIRECTION('',(0.,0.,1.));
#570=DIRECTION('',(1.,0.,0.));
#580=AXIS2_PLACEMENT_3D('',#550,#560,#570);
#590=CIRCLE('',#580,1.6);
#600=CARTESIAN_POINT('',(37.6,0.,0.));
#610=VERTEX_POINT('',#600);
#620=EDGE_CURVE('',#520,#610,#590,.T.);
#630=ORIENTED_EDGE('',*,*,#620,.F.);
#640=CARTESIAN_POINT('',(51.,0.,0.));
#650=DIRECTION('',(-1.,0.,0.));
#660=VECTOR('',#650,1.);
#670=LINE('',#640,#660);
#680=CARTESIAN_POINT('',(49.4,0.,0.));
#690=VERTEX_POINT('',#680);
#700=EDGE_CURVE('',#690,#610,#670,.T.);
#710=ORIENTED_EDGE('',*,*,#700,.T.);
#720=CARTESIAN_POINT('',(49.4,1.6,0.));
#730=DIRECTION('',(0.,0.,1.));
#740=DIRECTION('',(1.,0.,0.));
#750=AXIS2_PLACEMENT_3D('',#720,#730,#740);
#760=CIRCLE('',#750,1.6);
#770=CARTESIAN_POINT('',(51.,1.6,0.));
#780=VERTEX_POINT('',#770);
#790=EDGE_CURVE('',#690,#780,#760,.T.);
#800=ORIENTED_EDGE('',*,*,#790,.F.);
#810=CARTESIAN_POINT('',(51.,0.,0.));
#820=DIRECTION('',(0.,1.,0.));
#830=VECTOR('',#820,1.);
#840=LINE('',#810,#830);
#850=CARTESIAN_POINT('',(51.,20.,0.));
#860=VERTEX_POINT('',#850);
#870=EDGE_CURVE('',#780,#860,#840,.T.);
#880=ORIENTED_EDGE('',*,*,#870,.F.);
#890=CARTESIAN_POINT('',(47.5,20.,0.));
#900=DIRECTION('',(1.,1.01506105108586E-15,0.));
#910=VECTOR('',#900,1.);
#920=LINE('',#890,#910);
#930=CARTESIAN_POINT('',(47.5,20.,0.));
#940=VERTEX_POINT('',#930);
#950=EDGE_CURVE('',#940,#860,#920,.T.);
#960=ORIENTED_EDGE('',*,*,#950,.T.);
#970=CARTESIAN_POINT('',(47.5,15.,0.));
#980=DIRECTION('',(0.,1.,0.));
#990=VECTOR('',#980,1.);
#1000=LINE('',#970,#990);
#1010=CARTESIAN_POINT('',(47.5,15.,0.));
#1020=VERTEX_POINT('',#1010);
#1030=EDGE_CURVE('',#1020,#940,#1000,.T.);
#1040=ORIENTED_EDGE('',*,*,#1030,.T.);
#1050=CARTESIAN_POINT('',(40.5,15.,0.));
#1060=DIRECTION('',(1.,2.53765262771464E-16,0.));
#1070=VECTOR('',#1060,1.);
#1080=LINE('',#1050,#1070);
#1090=CARTESIAN_POINT('',(40.5,15.,0.));
#1100=VERTEX_POINT('',#1090);
#1110=EDGE_CURVE('',#1100,#1020,#1080,.T.);
#1120=ORIENTED_EDGE('',*,*,#1110,.T.);
#1130=CARTESIAN_POINT('',(40.5,35.,0.));
#1140=DIRECTION('',(-3.5527136788005E-16,-1.,0.));
#1150=VECTOR('',#1140,1.);
#1160=LINE('',#1130,#1150);
#1170=CARTESIAN_POINT('',(40.5,35.,0.));
#1180=VERTEX_POINT('',#1170);
#1190=EDGE_CURVE('',#1180,#1100,#1160,.T.);
#1200=ORIENTED_EDGE('',*,*,#1190,.T.);
#1210=CARTESIAN_POINT('',(47.5,35.,0.));
#1220=DIRECTION('',(-1.,0.,0.));
#1230=VECTOR('',#1220,1.);
#1240=LINE('',#1210,#1230);
#1250=CARTESIAN_POINT('',(47.5,35.,0.));
#1260=VERTEX_POINT('',#1250);
#1270=EDGE_CURVE('',#1260,#1180,#1240,.T.);
#1280=ORIENTED_EDGE('',*,*,#1270,.T.);
#1290=CARTESIAN_POINT('',(47.5,30.,0.));
#1300=DIRECTION('',(0.,1.,0.));
#1310=VECTOR('',#1300,1.);
#1320=LINE('',#1290,#1310);
#1330=CARTESIAN_POINT('',(47.5,30.,0.));
#1340=VERTEX_POINT('',#1330);
#1350=EDGE_CURVE('',#1340,#1260,#1320,.T.);
#1360=ORIENTED_EDGE('',*,*,#1350,.T.);
#1370=CARTESIAN_POINT('',(51.,30.,0.));
#1380=DIRECTION('',(-1.,1.01506105108586E-15,0.));
#1390=VECTOR('',#1380,1.);
#1400=LINE('',#1370,#1390);
#1410=CARTESIAN_POINT('',(51.,30.,0.));
#1420=VERTEX_POINT('',#1410);
#1430=EDGE_CURVE('',#1420,#1340,#1400,.T.);
#1440=ORIENTED_EDGE('',*,*,#1430,.T.);
#1450=CARTESIAN_POINT('',(51.,30.,0.));
#1460=DIRECTION('',(0.,1.,0.));
#1470=VECTOR('',#1460,1.);
#1480=LINE('',#1450,#1470);
#1490=CARTESIAN_POINT('',(51.,48.4,0.));
#1500=VERTEX_POINT('',#1490);
#1510=EDGE_CURVE('',#1420,#1500,#1480,.T.);
#1520=ORIENTED_EDGE('',*,*,#1510,.F.);
#1530=CARTESIAN_POINT('',(49.4,48.4,0.));
#1540=DIRECTION('',(0.,0.,1.));
#1550=DIRECTION('',(1.,0.,0.));
#1560=AXIS2_PLACEMENT_3D('',#1530,#1540,#1550);
#1570=CIRCLE('',#1560,1.6);
#1580=CARTESIAN_POINT('',(49.4,50.,0.));
#1590=VERTEX_POINT('',#1580);
#1600=EDGE_CURVE('',#1500,#1590,#1570,.T.);
#1610=ORIENTED_EDGE('',*,*,#1600,.F.);
#1620=CARTESIAN_POINT('',(1.,50.,0.));
#1630=DIRECTION('',(1.,0.,0.));
#1640=VECTOR('',#1630,1.);
#1650=LINE('',#1620,#1640);
#1660=EDGE_CURVE('',#440,#1590,#1650,.T.);
#1670=ORIENTED_EDGE('',*,*,#1660,.T.);
#1680=EDGE_LOOP('',(#1670,#1610,#1520,#1440,#1360,#1280,#1200,#1120,
#1040,#960,#880,#800,#710,#630,#540,#460));
#1690=FACE_OUTER_BOUND('',#1680,.T.);
#1700=ADVANCED_FACE('',(#200,#350,#1690),#50,.F.);
#1710=CARTESIAN_POINT('',(0.,0.,100.));
#1720=DIRECTION('',(0.,0.,1.));
#1730=DIRECTION('',(1.,0.,0.));
#1740=AXIS2_PLACEMENT_3D('',#1710,#1720,#1730);
#1750=PLANE('',#1740);
#1760=CARTESIAN_POINT('',(43.5,7.5,100.));
#1770=DIRECTION('',(0.,0.,1.));
#1780=DIRECTION('',(1.,0.,0.));
#1790=AXIS2_PLACEMENT_3D('',#1760,#1770,#1780);
#1800=CIRCLE('',#1790,3.4);
#1810=CARTESIAN_POINT('',(46.9,7.5,100.));
#1820=VERTEX_POINT('',#1810);
#1830=CARTESIAN_POINT('',(40.1,7.5,100.));
#1840=VERTEX_POINT('',#1830);
#1850=EDGE_CURVE('',#1820,#1840,#1800,.T.);
#1860=ORIENTED_EDGE('',*,*,#1850,.F.);
#1870=EDGE_CURVE('',#1840,#1820,#1800,.T.);
#1880=ORIENTED_EDGE('',*,*,#1870,.F.);
#1890=EDGE_LOOP('',(#1880,#1860));
#1900=FACE_BOUND('',#1890,.T.);
#1910=CARTESIAN_POINT('',(43.5,42.5,100.));
#1920=DIRECTION('',(0.,0.,1.));
#1930=DIRECTION('',(1.,0.,0.));
#1940=AXIS2_PLACEMENT_3D('',#1910,#1920,#1930);
#1950=CIRCLE('',#1940,3.4);
#1960=CARTESIAN_POINT('',(46.9,42.5,100.));
#1970=VERTEX_POINT('',#1960);
#1980=CARTESIAN_POINT('',(40.1,42.5,100.));
#1990=VERTEX_POINT('',#1980);
#2000=EDGE_CURVE('',#1970,#1990,#1950,.T.);
#2010=ORIENTED_EDGE('',*,*,#2000,.F.);
#2020=EDGE_CURVE('',#1990,#1970,#1950,.T.);
#2030=ORIENTED_EDGE('',*,*,#2020,.F.);
#2040=EDGE_LOOP('',(#2030,#2010));
#2050=FACE_BOUND('',#2040,.T.);
#2060=CARTESIAN_POINT('',(37.6,48.4,100.));
#2070=DIRECTION('',(0.,0.,-1.));
#2080=DIRECTION('',(-1.,0.,0.));
#2090=AXIS2_PLACEMENT_3D('',#2060,#2070,#2080);
#2100=CIRCLE('',#2090,1.6);
#2110=CARTESIAN_POINT('',(36.,48.4,100.));
#2120=VERTEX_POINT('',#2110);
#2130=CARTESIAN_POINT('',(37.6,50.,100.));
#2140=VERTEX_POINT('',#2130);
#2150=EDGE_CURVE('',#2120,#2140,#2100,.T.);
#2160=ORIENTED_EDGE('',*,*,#2150,.F.);
#2170=CARTESIAN_POINT('',(1.,50.,100.));
#2180=DIRECTION('',(1.,0.,0.));
#2190=VECTOR('',#2180,1.);
#2200=LINE('',#2170,#2190);
#2210=CARTESIAN_POINT('',(49.4,50.,100.));
#2220=VERTEX_POINT('',#2210);
#2230=EDGE_CURVE('',#2140,#2220,#2200,.T.);
#2240=ORIENTED_EDGE('',*,*,#2230,.F.);
#2250=CARTESIAN_POINT('',(49.4,48.4,100.));
#2260=DIRECTION('',(0.,0.,1.));
#2270=DIRECTION('',(1.,0.,0.));
#2280=AXIS2_PLACEMENT_3D('',#2250,#2260,#2270);
#2290=CIRCLE('',#2280,1.6);
#2300=CARTESIAN_POINT('',(51.,48.4,100.));
#2310=VERTEX_POINT('',#2300);
#2320=EDGE_CURVE('',#2310,#2220,#2290,.T.);
#2330=ORIENTED_EDGE('',*,*,#2320,.T.);
#2340=CARTESIAN_POINT('',(51.,30.,100.));
#2350=DIRECTION('',(0.,1.,0.));
#2360=VECTOR('',#2350,1.);
#2370=LINE('',#2340,#2360);
#2380=CARTESIAN_POINT('',(51.,30.,100.));
#2390=VERTEX_POINT('',#2380);
#2400=EDGE_CURVE('',#2390,#2310,#2370,.T.);
#2410=ORIENTED_EDGE('',*,*,#2400,.T.);
#2420=CARTESIAN_POINT('',(51.,30.,100.));
#2430=DIRECTION('',(-1.,1.01506105108586E-15,0.));
#2440=VECTOR('',#2430,1.);
#2450=LINE('',#2420,#2440);
#2460=CARTESIAN_POINT('',(47.5,30.,100.));
#2470=VERTEX_POINT('',#2460);
#2480=EDGE_CURVE('',#2390,#2470,#2450,.T.);
#2490=ORIENTED_EDGE('',*,*,#2480,.F.);
#2500=CARTESIAN_POINT('',(47.5,30.,100.));
#2510=DIRECTION('',(0.,1.,0.));
#2520=VECTOR('',#2510,1.);
#2530=LINE('',#2500,#2520);
#2540=CARTESIAN_POINT('',(47.5,35.,100.));
#2550=VERTEX_POINT('',#2540);
#2560=EDGE_CURVE('',#2470,#2550,#2530,.T.);
#2570=ORIENTED_EDGE('',*,*,#2560,.F.);
#2580=CARTESIAN_POINT('',(47.5,35.,100.));
#2590=DIRECTION('',(-1.,0.,0.));
#2600=VECTOR('',#2590,1.);
#2610=LINE('',#2580,#2600);
#2620=CARTESIAN_POINT('',(40.5,35.,100.));
#2630=VERTEX_POINT('',#2620);
#2640=EDGE_CURVE('',#2550,#2630,#2610,.T.);
#2650=ORIENTED_EDGE('',*,*,#2640,.F.);
#2660=CARTESIAN_POINT('',(40.5,35.,100.));
#2670=DIRECTION('',(-3.5527136788005E-16,-1.,0.));
#2680=VECTOR('',#2670,1.);
#2690=LINE('',#2660,#2680);
#2700=CARTESIAN_POINT('',(40.5,15.,100.));
#2710=VERTEX_POINT('',#2700);
#2720=EDGE_CURVE('',#2630,#2710,#2690,.T.);
#2730=ORIENTED_EDGE('',*,*,#2720,.F.);
#2740=CARTESIAN_POINT('',(40.5,15.,100.));
#2750=DIRECTION('',(1.,2.53765262771464E-16,0.));
#2760=VECTOR('',#2750,1.);
#2770=LINE('',#2740,#2760);
#2780=CARTESIAN_POINT('',(47.5,15.,100.));
#2790=VERTEX_POINT('',#2780);
#2800=EDGE_CURVE('',#2710,#2790,#2770,.T.);
#2810=ORIENTED_EDGE('',*,*,#2800,.F.);
#2820=CARTESIAN_POINT('',(47.5,15.,100.));
#2830=DIRECTION('',(0.,1.,0.));
#2840=VECTOR('',#2830,1.);
#2850=LINE('',#2820,#2840);
#2860=CARTESIAN_POINT('',(47.5,20.,100.));
#2870=VERTEX_POINT('',#2860);
#2880=EDGE_CURVE('',#2790,#2870,#2850,.T.);
#2890=ORIENTED_EDGE('',*,*,#2880,.F.);
#2900=CARTESIAN_POINT('',(47.5,20.,100.));
#2910=DIRECTION('',(1.,1.01506105108586E-15,0.));
#2920=VECTOR('',#2910,1.);
#2930=LINE('',#2900,#2920);
#2940=CARTESIAN_POINT('',(51.,20.,100.));
#2950=VERTEX_POINT('',#2940);
#2960=EDGE_CURVE('',#2870,#2950,#2930,.T.);
#2970=ORIENTED_EDGE('',*,*,#2960,.F.);
#2980=CARTESIAN_POINT('',(51.,0.,100.));
#2990=DIRECTION('',(0.,1.,0.));
#3000=VECTOR('',#2990,1.);
#3010=LINE('',#2980,#3000);
#3020=CARTESIAN_POINT('',(51.,1.6,100.));
#3030=VERTEX_POINT('',#3020);
#3040=EDGE_CURVE('',#3030,#2950,#3010,.T.);
#3050=ORIENTED_EDGE('',*,*,#3040,.T.);
#3060=CARTESIAN_POINT('',(49.4,1.6,100.));
#3070=DIRECTION('',(0.,0.,1.));
#3080=DIRECTION('',(1.,0.,0.));
#3090=AXIS2_PLACEMENT_3D('',#3060,#3070,#3080);
#3100=CIRCLE('',#3090,1.6);
#3110=CARTESIAN_POINT('',(49.4,0.,100.));
#3120=VERTEX_POINT('',#3110);
#3130=EDGE_CURVE('',#3120,#3030,#3100,.T.);
#3140=ORIENTED_EDGE('',*,*,#3130,.T.);
#3150=CARTESIAN_POINT('',(51.,0.,100.));
#3160=DIRECTION('',(-1.,0.,0.));
#3170=VECTOR('',#3160,1.);
#3180=LINE('',#3150,#3170);
#3190=CARTESIAN_POINT('',(37.6,0.,100.));
#3200=VERTEX_POINT('',#3190);
#3210=EDGE_CURVE('',#3120,#3200,#3180,.T.);
#3220=ORIENTED_EDGE('',*,*,#3210,.F.);
#3230=CARTESIAN_POINT('',(37.6,1.6,100.));
#3240=DIRECTION('',(0.,0.,1.));
#3250=DIRECTION('',(1.,0.,0.));
#3260=AXIS2_PLACEMENT_3D('',#3230,#3240,#3250);
#3270=CIRCLE('',#3260,1.6);
#3280=CARTESIAN_POINT('',(36.,1.6,100.));
#3290=VERTEX_POINT('',#3280);
#3300=EDGE_CURVE('',#3290,#3200,#3270,.T.);
#3310=ORIENTED_EDGE('',*,*,#3300,.T.);
#3320=CARTESIAN_POINT('',(36.,0.,100.));
#3330=DIRECTION('',(0.,1.,0.));
#3340=VECTOR('',#3330,1.);
#3350=LINE('',#3320,#3340);
#3360=EDGE_CURVE('',#3290,#2120,#3350,.T.);
#3370=ORIENTED_EDGE('',*,*,#3360,.F.);
#3380=EDGE_LOOP('',(#3370,#3310,#3220,#3140,#3050,#2970,#2890,#2810,
#2730,#2650,#2570,#2490,#2410,#2330,#2240,#2160));
#3390=FACE_OUTER_BOUND('',#3380,.T.);
#3400=ADVANCED_FACE('',(#1900,#2050,#3390),#1750,.T.);
#3410=CARTESIAN_POINT('',(36.,0.,0.));
#3420=DIRECTION('',(-1.,0.,0.));
#3430=DIRECTION('',(0.,1.,0.));
#3440=AXIS2_PLACEMENT_3D('',#3410,#3420,#3430);
#3450=PLANE('',#3440);
#3460=ORIENTED_EDGE('',*,*,#3360,.T.);
#3470=CARTESIAN_POINT('',(36.,1.6,0.));
#3480=DIRECTION('',(0.,0.,1.));
#3490=VECTOR('',#3480,1.);
#3500=LINE('',#3470,#3490);
#3510=EDGE_CURVE('',#520,#3290,#3500,.T.);
#3520=ORIENTED_EDGE('',*,*,#3510,.T.);
#3530=ORIENTED_EDGE('',*,*,#530,.F.);
#3540=CARTESIAN_POINT('',(36.,48.4,0.));
#3550=DIRECTION('',(0.,0.,1.));
#3560=VECTOR('',#3550,1.);
#3570=LINE('',#3540,#3560);
#3580=EDGE_CURVE('',#420,#2120,#3570,.T.);
#3590=ORIENTED_EDGE('',*,*,#3580,.F.);
#3600=EDGE_LOOP('',(#3590,#3530,#3520,#3460));
#3610=FACE_OUTER_BOUND('',#3600,.T.);
#3620=ADVANCED_FACE('',(#3610),#3450,.T.);
#3630=CARTESIAN_POINT('',(51.,0.,0.));
#3640=DIRECTION('',(-0.,-1.,-0.));
#3650=DIRECTION('',(-1.,0.,0.));
#3660=AXIS2_PLACEMENT_3D('',#3630,#3640,#3650);
#3670=PLANE('',#3660);
#3680=ORIENTED_EDGE('',*,*,#700,.F.);
#3690=CARTESIAN_POINT('',(37.6,0.,0.));
#3700=DIRECTION('',(0.,0.,1.));
#3710=VECTOR('',#3700,1.);
#3720=LINE('',#3690,#3710);
#3730=EDGE_CURVE('',#610,#3200,#3720,.T.);
#3740=ORIENTED_EDGE('',*,*,#3730,.F.);
#3750=ORIENTED_EDGE('',*,*,#3210,.T.);
#3760=CARTESIAN_POINT('',(49.4,0.,0.));
#3770=DIRECTION('',(0.,0.,1.));
#3780=VECTOR('',#3770,1.);
#3790=LINE('',#3760,#3780);
#3800=EDGE_CURVE('',#690,#3120,#3790,.T.);
#3810=ORIENTED_EDGE('',*,*,#3800,.T.);
#3820=EDGE_LOOP('',(#3810,#3750,#3740,#3680));
#3830=FACE_OUTER_BOUND('',#3820,.T.);
#3840=ADVANCED_FACE('',(#3830),#3670,.T.);
#3850=CARTESIAN_POINT('',(51.,20.,0.));
#3860=DIRECTION('',(1.,0.,0.));
#3870=DIRECTION('',(0.,-1.,0.));
#3880=AXIS2_PLACEMENT_3D('',#3850,#3860,#3870);
#3890=PLANE('',#3880);
#3900=CARTESIAN_POINT('',(51.,1.6,0.));
#3910=DIRECTION('',(0.,0.,1.));
#3920=VECTOR('',#3910,1.);
#3930=LINE('',#3900,#3920);
#3940=EDGE_CURVE('',#780,#3030,#3930,.T.);
#3950=ORIENTED_EDGE('',*,*,#3940,.F.);
#3960=ORIENTED_EDGE('',*,*,#3040,.F.);
#3970=CARTESIAN_POINT('',(51.,20.,0.));
#3980=DIRECTION('',(0.,0.,1.));
#3990=VECTOR('',#3980,1.);
#4000=LINE('',#3970,#3990);
#4010=EDGE_CURVE('',#860,#2950,#4000,.T.);
#4020=ORIENTED_EDGE('',*,*,#4010,.T.);
#4030=ORIENTED_EDGE('',*,*,#870,.T.);
#4040=EDGE_LOOP('',(#4030,#4020,#3960,#3950));
#4050=FACE_OUTER_BOUND('',#4040,.T.);
#4060=ADVANCED_FACE('',(#4050),#3890,.T.);
#4070=CARTESIAN_POINT('',(47.5,20.,0.));
#4080=DIRECTION('',(-1.01506105108586E-15,1.,0.));
#4090=DIRECTION('',(1.,1.01506105108586E-15,0.));
#4100=AXIS2_PLACEMENT_3D('',#4070,#4080,#4090);
#4110=PLANE('',#4100);
#4120=ORIENTED_EDGE('',*,*,#4010,.F.);
#4130=ORIENTED_EDGE('',*,*,#2960,.T.);
#4140=CARTESIAN_POINT('',(47.5,20.,0.));
#4150=DIRECTION('',(0.,0.,1.));
#4160=VECTOR('',#4150,1.);
#4170=LINE('',#4140,#4160);
#4180=EDGE_CURVE('',#940,#2870,#4170,.T.);
#4190=ORIENTED_EDGE('',*,*,#4180,.T.);
#4200=ORIENTED_EDGE('',*,*,#950,.F.);
#4210=EDGE_LOOP('',(#4200,#4190,#4130,#4120));
#4220=FACE_OUTER_BOUND('',#4210,.T.);
#4230=ADVANCED_FACE('',(#4220),#4110,.T.);
#4240=CARTESIAN_POINT('',(47.5,15.,0.));
#4250=DIRECTION('',(-1.,0.,0.));
#4260=DIRECTION('',(0.,1.,0.));
#4270=AXIS2_PLACEMENT_3D('',#4240,#4250,#4260);
#4280=PLANE('',#4270);
#4290=ORIENTED_EDGE('',*,*,#4180,.F.);
#4300=ORIENTED_EDGE('',*,*,#2880,.T.);
#4310=CARTESIAN_POINT('',(47.5,15.,0.));
#4320=DIRECTION('',(0.,0.,1.));
#4330=VECTOR('',#4320,1.);
#4340=LINE('',#4310,#4330);
#4350=EDGE_CURVE('',#1020,#2790,#4340,.T.);
#4360=ORIENTED_EDGE('',*,*,#4350,.T.);
#4370=ORIENTED_EDGE('',*,*,#1030,.F.);
#4380=EDGE_LOOP('',(#4370,#4360,#4300,#4290));
#4390=FACE_OUTER_BOUND('',#4380,.T.);
#4400=ADVANCED_FACE('',(#4390),#4280,.T.);
#4410=CARTESIAN_POINT('',(40.5,15.,0.));
#4420=DIRECTION('',(-2.53765262771464E-16,1.,0.));
#4430=DIRECTION('',(1.,2.53765262771464E-16,0.));
#4440=AXIS2_PLACEMENT_3D('',#4410,#4420,#4430);
#4450=PLANE('',#4440);
#4460=ORIENTED_EDGE('',*,*,#4350,.F.);
#4470=ORIENTED_EDGE('',*,*,#2800,.T.);
#4480=CARTESIAN_POINT('',(40.5,15.,0.));
#4490=DIRECTION('',(0.,0.,1.));
#4500=VECTOR('',#4490,1.);
#4510=LINE('',#4480,#4500);
#4520=EDGE_CURVE('',#1100,#2710,#4510,.T.);
#4530=ORIENTED_EDGE('',*,*,#4520,.T.);
#4540=ORIENTED_EDGE('',*,*,#1110,.F.);
#4550=EDGE_LOOP('',(#4540,#4530,#4470,#4460));
#4560=FACE_OUTER_BOUND('',#4550,.T.);
#4570=ADVANCED_FACE('',(#4560),#4450,.T.);
#4580=CARTESIAN_POINT('',(40.5,35.,0.));
#4590=DIRECTION('',(1.,-3.5527136788005E-16,0.));
#4600=DIRECTION('',(-3.5527136788005E-16,-1.,0.));
#4610=AXIS2_PLACEMENT_3D('',#4580,#4590,#4600);
#4620=PLANE('',#4610);
#4630=ORIENTED_EDGE('',*,*,#4520,.F.);
#4640=ORIENTED_EDGE('',*,*,#2720,.T.);
#4650=CARTESIAN_POINT('',(40.5,35.,0.));
#4660=DIRECTION('',(0.,0.,1.));
#4670=VECTOR('',#4660,1.);
#4680=LINE('',#4650,#4670);
#4690=EDGE_CURVE('',#1180,#2630,#4680,.T.);
#4700=ORIENTED_EDGE('',*,*,#4690,.T.);
#4710=ORIENTED_EDGE('',*,*,#1190,.F.);
#4720=EDGE_LOOP('',(#4710,#4700,#4640,#4630));
#4730=FACE_OUTER_BOUND('',#4720,.T.);
#4740=ADVANCED_FACE('',(#4730),#4620,.T.);
#4750=CARTESIAN_POINT('',(47.5,35.,0.));
#4760=DIRECTION('',(-0.,-1.,-0.));
#4770=DIRECTION('',(-1.,0.,0.));
#4780=AXIS2_PLACEMENT_3D('',#4750,#4760,#4770);
#4790=PLANE('',#4780);
#4800=ORIENTED_EDGE('',*,*,#4690,.F.);
#4810=ORIENTED_EDGE('',*,*,#2640,.T.);
#4820=CARTESIAN_POINT('',(47.5,35.,0.));
#4830=DIRECTION('',(0.,0.,1.));
#4840=VECTOR('',#4830,1.);
#4850=LINE('',#4820,#4840);
#4860=EDGE_CURVE('',#1260,#2550,#4850,.T.);
#4870=ORIENTED_EDGE('',*,*,#4860,.T.);
#4880=ORIENTED_EDGE('',*,*,#1270,.F.);
#4890=EDGE_LOOP('',(#4880,#4870,#4810,#4800));
#4900=FACE_OUTER_BOUND('',#4890,.T.);
#4910=ADVANCED_FACE('',(#4900),#4790,.T.);
#4920=CARTESIAN_POINT('',(47.5,30.,0.));
#4930=DIRECTION('',(-1.,0.,0.));
#4940=DIRECTION('',(0.,1.,0.));
#4950=AXIS2_PLACEMENT_3D('',#4920,#4930,#4940);
#4960=PLANE('',#4950);
#4970=ORIENTED_EDGE('',*,*,#4860,.F.);
#4980=ORIENTED_EDGE('',*,*,#2560,.T.);
#4990=CARTESIAN_POINT('',(47.5,30.,0.));
#5000=DIRECTION('',(0.,0.,1.));
#5010=VECTOR('',#5000,1.);
#5020=LINE('',#4990,#5010);
#5030=EDGE_CURVE('',#1340,#2470,#5020,.T.);
#5040=ORIENTED_EDGE('',*,*,#5030,.T.);
#5050=ORIENTED_EDGE('',*,*,#1350,.F.);
#5060=EDGE_LOOP('',(#5050,#5040,#4980,#4970));
#5070=FACE_OUTER_BOUND('',#5060,.T.);
#5080=ADVANCED_FACE('',(#5070),#4960,.T.);
#5090=CARTESIAN_POINT('',(51.,30.,0.));
#5100=DIRECTION('',(-1.01506105108586E-15,-1.,-0.));
#5110=DIRECTION('',(-1.,1.01506105108586E-15,0.));
#5120=AXIS2_PLACEMENT_3D('',#5090,#5100,#5110);
#5130=PLANE('',#5120);
#5140=ORIENTED_EDGE('',*,*,#5030,.F.);
#5150=ORIENTED_EDGE('',*,*,#2480,.T.);
#5160=CARTESIAN_POINT('',(51.,30.,0.));
#5170=DIRECTION('',(0.,0.,1.));
#5180=VECTOR('',#5170,1.);
#5190=LINE('',#5160,#5180);
#5200=EDGE_CURVE('',#1420,#2390,#5190,.T.);
#5210=ORIENTED_EDGE('',*,*,#5200,.T.);
#5220=ORIENTED_EDGE('',*,*,#1430,.F.);
#5230=EDGE_LOOP('',(#5220,#5210,#5150,#5140));
#5240=FACE_OUTER_BOUND('',#5230,.T.);
#5250=ADVANCED_FACE('',(#5240),#5130,.T.);
#5260=CARTESIAN_POINT('',(51.,50.,0.));
#5270=DIRECTION('',(1.,0.,0.));
#5280=DIRECTION('',(0.,-1.,0.));
#5290=AXIS2_PLACEMENT_3D('',#5260,#5270,#5280);
#5300=PLANE('',#5290);
#5310=ORIENTED_EDGE('',*,*,#1510,.T.);
#5320=ORIENTED_EDGE('',*,*,#5200,.F.);
#5330=ORIENTED_EDGE('',*,*,#2400,.F.);
#5340=CARTESIAN_POINT('',(51.,48.4,0.));
#5350=DIRECTION('',(0.,0.,1.));
#5360=VECTOR('',#5350,1.);
#5370=LINE('',#5340,#5360);
#5380=EDGE_CURVE('',#1500,#2310,#5370,.T.);
#5390=ORIENTED_EDGE('',*,*,#5380,.T.);
#5400=EDGE_LOOP('',(#5390,#5330,#5320,#5310));
#5410=FACE_OUTER_BOUND('',#5400,.T.);
#5420=ADVANCED_FACE('',(#5410),#5300,.T.);
#5430=CARTESIAN_POINT('',(37.,50.,0.));
#5440=DIRECTION('',(-0.,1.,0.));
#5450=DIRECTION('',(1.,0.,0.));
#5460=AXIS2_PLACEMENT_3D('',#5430,#5440,#5450);
#5470=PLANE('',#5460);
#5480=CARTESIAN_POINT('',(49.4,50.,0.));
#5490=DIRECTION('',(0.,0.,1.));
#5500=VECTOR('',#5490,1.);
#5510=LINE('',#5480,#5500);
#5520=EDGE_CURVE('',#1590,#2220,#5510,.T.);
#5530=ORIENTED_EDGE('',*,*,#5520,.F.);
#5540=ORIENTED_EDGE('',*,*,#2230,.T.);
#5550=CARTESIAN_POINT('',(37.6,50.,0.));
#5560=DIRECTION('',(0.,0.,1.));
#5570=VECTOR('',#5560,1.);
#5580=LINE('',#5550,#5570);
#5590=EDGE_CURVE('',#440,#2140,#5580,.T.);
#5600=ORIENTED_EDGE('',*,*,#5590,.T.);
#5610=ORIENTED_EDGE('',*,*,#1660,.F.);
#5620=EDGE_LOOP('',(#5610,#5600,#5540,#5530));
#5630=FACE_OUTER_BOUND('',#5620,.T.);
#5640=ADVANCED_FACE('',(#5630),#5470,.T.);
#5650=CARTESIAN_POINT('',(49.4,48.4,0.));
#5660=DIRECTION('',(0.,0.,1.));
#5670=DIRECTION('',(1.,0.,0.));
#5680=AXIS2_PLACEMENT_3D('',#5650,#5660,#5670);
#5690=CYLINDRICAL_SURFACE('',#5680,1.6);
#5700=ORIENTED_EDGE('',*,*,#2320,.F.);
#5710=ORIENTED_EDGE('',*,*,#5520,.T.);
#5720=ORIENTED_EDGE('',*,*,#1600,.T.);
#5730=ORIENTED_EDGE('',*,*,#5380,.F.);
#5740=EDGE_LOOP('',(#5730,#5720,#5710,#5700));
#5750=FACE_OUTER_BOUND('',#5740,.T.);
#5760=ADVANCED_FACE('',(#5750),#5690,.T.);
#5770=CARTESIAN_POINT('',(49.4,1.6,0.));
#5780=DIRECTION('',(0.,0.,1.));
#5790=DIRECTION('',(1.,0.,0.));
#5800=AXIS2_PLACEMENT_3D('',#5770,#5780,#5790);
#5810=CYLINDRICAL_SURFACE('',#5800,1.6);
#5820=ORIENTED_EDGE('',*,*,#3130,.F.);
#5830=ORIENTED_EDGE('',*,*,#3940,.T.);
#5840=ORIENTED_EDGE('',*,*,#790,.T.);
#5850=ORIENTED_EDGE('',*,*,#3800,.F.);
#5860=EDGE_LOOP('',(#5850,#5840,#5830,#5820));
#5870=FACE_OUTER_BOUND('',#5860,.T.);
#5880=ADVANCED_FACE('',(#5870),#5810,.T.);
#5890=CARTESIAN_POINT('',(37.6,1.6,0.));
#5900=DIRECTION('',(0.,0.,1.));
#5910=DIRECTION('',(1.,0.,0.));
#5920=AXIS2_PLACEMENT_3D('',#5890,#5900,#5910);
#5930=CYLINDRICAL_SURFACE('',#5920,1.6);
#5940=ORIENTED_EDGE('',*,*,#3300,.F.);
#5950=ORIENTED_EDGE('',*,*,#3730,.T.);
#5960=ORIENTED_EDGE('',*,*,#620,.T.);
#5970=ORIENTED_EDGE('',*,*,#3510,.F.);
#5980=EDGE_LOOP('',(#5970,#5960,#5950,#5940));
#5990=FACE_OUTER_BOUND('',#5980,.T.);
#6000=ADVANCED_FACE('',(#5990),#5930,.T.);
#6010=CARTESIAN_POINT('',(37.6,48.4,0.));
#6020=DIRECTION('',(0.,0.,-1.));
#6030=DIRECTION('',(-1.,0.,0.));
#6040=AXIS2_PLACEMENT_3D('',#6010,#6020,#6030);
#6050=CYLINDRICAL_SURFACE('',#6040,1.6);
#6060=ORIENTED_EDGE('',*,*,#450,.F.);
#6070=ORIENTED_EDGE('',*,*,#5590,.F.);
#6080=ORIENTED_EDGE('',*,*,#2150,.T.);
#6090=ORIENTED_EDGE('',*,*,#3580,.T.);
#6100=EDGE_LOOP('',(#6090,#6080,#6070,#6060));
#6110=FACE_OUTER_BOUND('',#6100,.T.);
#6120=ADVANCED_FACE('',(#6110),#6050,.T.);
#6130=CARTESIAN_POINT('',(43.5,7.5,0.));
#6140=DIRECTION('',(0.,0.,1.));
#6150=DIRECTION('',(1.,0.,0.));
#6160=AXIS2_PLACEMENT_3D('',#6130,#6140,#6150);
#6170=CYLINDRICAL_SURFACE('',#6160,3.4);
#6180=CARTESIAN_POINT('',(40.1,7.5,0.));
#6190=DIRECTION('',(0.,0.,1.));
#6200=VECTOR('',#6190,1.);
#6210=LINE('',#6180,#6200);
#6220=EDGE_CURVE('',#140,#1840,#6210,.T.);
#6230=ORIENTED_EDGE('',*,*,#6220,.T.);
#6240=ORIENTED_EDGE('',*,*,#170,.F.);
#6250=CARTESIAN_POINT('',(46.9,7.5,0.));
#6260=DIRECTION('',(0.,0.,1.));
#6270=VECTOR('',#6260,1.);
#6280=LINE('',#6250,#6270);
#6290=EDGE_CURVE('',#120,#1820,#6280,.T.);
#6300=ORIENTED_EDGE('',*,*,#6290,.F.);
#6310=ORIENTED_EDGE('',*,*,#1870,.T.);
#6320=EDGE_LOOP('',(#6310,#6300,#6240,#6230));
#6330=FACE_OUTER_BOUND('',#6320,.T.);
#6340=ADVANCED_FACE('',(#6330),#6170,.F.);
#6350=CARTESIAN_POINT('',(43.5,7.5,0.));
#6360=DIRECTION('',(0.,0.,1.));
#6370=DIRECTION('',(1.,0.,0.));
#6380=AXIS2_PLACEMENT_3D('',#6350,#6360,#6370);
#6390=CYLINDRICAL_SURFACE('',#6380,3.4);
#6400=ORIENTED_EDGE('',*,*,#150,.F.);
#6410=ORIENTED_EDGE('',*,*,#6220,.F.);
#6420=ORIENTED_EDGE('',*,*,#1850,.T.);
#6430=ORIENTED_EDGE('',*,*,#6290,.T.);
#6440=EDGE_LOOP('',(#6430,#6420,#6410,#6400));
#6450=FACE_OUTER_BOUND('',#6440,.T.);
#6460=ADVANCED_FACE('',(#6450),#6390,.F.);
#6470=CARTESIAN_POINT('',(43.5,42.5,0.));
#6480=DIRECTION('',(0.,0.,1.));
#6490=DIRECTION('',(1.,0.,0.));
#6500=AXIS2_PLACEMENT_3D('',#6470,#6480,#6490);
#6510=CYLINDRICAL_SURFACE('',#6500,3.4);
#6520=CARTESIAN_POINT('',(40.1,42.5,0.));
#6530=DIRECTION('',(0.,0.,1.));
#6540=VECTOR('',#6530,1.);
#6550=LINE('',#6520,#6540);
#6560=EDGE_CURVE('',#290,#1990,#6550,.T.);
#6570=ORIENTED_EDGE('',*,*,#6560,.T.);
#6580=ORIENTED_EDGE('',*,*,#320,.F.);
#6590=CARTESIAN_POINT('',(46.9,42.5,0.));
#6600=DIRECTION('',(0.,0.,1.));
#6610=VECTOR('',#6600,1.);
#6620=LINE('',#6590,#6610);
#6630=EDGE_CURVE('',#270,#1970,#6620,.T.);
#6640=ORIENTED_EDGE('',*,*,#6630,.F.);
#6650=ORIENTED_EDGE('',*,*,#2020,.T.);
#6660=EDGE_LOOP('',(#6650,#6640,#6580,#6570));
#6670=FACE_OUTER_BOUND('',#6660,.T.);
#6680=ADVANCED_FACE('',(#6670),#6510,.F.);
#6690=CARTESIAN_POINT('',(43.5,42.5,0.));
#6700=DIRECTION('',(0.,0.,1.));
#6710=DIRECTION('',(1.,0.,0.));
#6720=AXIS2_PLACEMENT_3D('',#6690,#6700,#6710);
#6730=CYLINDRICAL_SURFACE('',#6720,3.4);
#6740=ORIENTED_EDGE('',*,*,#300,.F.);
#6750=ORIENTED_EDGE('',*,*,#6560,.F.);
#6760=ORIENTED_EDGE('',*,*,#2000,.T.);
#6770=ORIENTED_EDGE('',*,*,#6630,.T.);
#6780=EDGE_LOOP('',(#6770,#6760,#6750,#6740));
#6790=FACE_OUTER_BOUND('',#6780,.T.);
#6800=ADVANCED_FACE('',(#6790),#6730,.F.);
#6810=CLOSED_SHELL('',(#3620,#3840,#4060,#4230,#4400,#4570,#4740,#4910,
#5080,#5250,#5420,#5640,#5760,#5880,#6000,#6120,#6340,#6460,#6680,#6800,
#3400,#1700));
#6820=MANIFOLD_SOLID_BREP('',#6810);
#6830=CARTESIAN_POINT('',(0.,0.,0.));
#6840=DIRECTION('',(0.,0.,1.));
#6850=DIRECTION('',(1.,0.,0.));
#6860=AXIS2_PLACEMENT_3D('',#6830,#6840,#6850);
#6870=APPLICATION_CONTEXT(' ');
#6880=APPLICATION_PROTOCOL_DEFINITION(' ','automotive_design',1998,#6870
);
#6890=PRODUCT_CONTEXT('',#6870,'mechanical');
#6900=PRODUCT_DEFINITION_CONTEXT('part definition',#6870,'design');
#6910=PRODUCT('327218-1644901564-10e7c6305d1b-0227656',
'327218-1644901564-10e7c6305d1b-0227656','',(#6890));
#6920=PRODUCT_RELATED_PRODUCT_CATEGORY('part',' ',(#6910));
#6930=PRODUCT_DEFINITION_FORMATION_WITH_SPECIFIED_SOURCE('','',#6910,
.BOUGHT.);
#6940=PRODUCT_DEFINITION('',' ',#6930,#6900);
#6950=PRODUCT_DEFINITION_SHAPE('','',#6940);
#6960=DIMENSIONAL_EXPONENTS(1.,0.,0.,0.,0.,0.,0.);
#6970=DIMENSIONAL_EXPONENTS(0.,0.,0.,0.,0.,0.,0.);
#6980=DIMENSIONAL_EXPONENTS(0.,0.,0.,0.,0.,0.,0.);
#6990=(LENGTH_UNIT() NAMED_UNIT(*) SI_UNIT(.MILLI.,.METRE.));
#7000=(NAMED_UNIT(*) PLANE_ANGLE_UNIT() SI_UNIT($,.RADIAN.));
#7010=(NAMED_UNIT(*) SI_UNIT($,.STERADIAN.) SOLID_ANGLE_UNIT());
#7020=(GEOMETRIC_REPRESENTATION_CONTEXT(3) 
GLOBAL_UNCERTAINTY_ASSIGNED_CONTEXT((#7030)) 
GLOBAL_UNIT_ASSIGNED_CONTEXT((#6990,#7000,#7010)) REPRESENTATION_CONTEXT
('',''));
#7030=UNCERTAINTY_MEASURE_WITH_UNIT(LENGTH_MEASURE(1.E-6),#6990,
'distance_accuracy_value','maximum gap value');
#7040=ADVANCED_BREP_SHAPE_REPRESENTATION('',(#6860,#6820),#7020);
#7050=SHAPE_DEFINITION_REPRESENTATION(#6950,#7040);
#7060=COLOUR_RGB('',0.600000023841858,0.600000023841858,
0.600000023841858);
#7070=FILL_AREA_STYLE_COLOUR('',#7060);
#7080=FILL_AREA_STYLE('',(#7070));
#7090=SURFACE_STYLE_FILL_AREA(#7080);
#7100=SURFACE_SIDE_STYLE('',(#7090));
#7110=SURFACE_STYLE_USAGE(.BOTH.,#7100);
#7120=PRESENTATION_STYLE_ASSIGNMENT((#7110));
#7130=STYLED_ITEM('',(#7120),#6820);
#7140=DRAUGHTING_MODEL('',(#7130),#7020);
ENDSEC;
END-ISO-10303-21;
