ISO-10303-21;
HEADER;
FILE_DESCRIPTION(('Creo Elements/Direct Modeling STEP Export'),'2;1');
FILE_NAME(
'//KR-CAD2/PhoenixTemp/karl.letzgus/Konvertierung/55.0125.2_Klemmschiene
nprofil-MMS-55_19.8x9.8x3000mm.stp','2022-03-21T 8:06:35',(''),(''),
'PTC Creo Elements/Direct Modeling STEP processor for AP214 (Solid Model
)',
'PTC Creo Elements/Direct Modeling 19.0C  15-Aug-2015 (C) Parametric Tec
hnology GmbH','');
FILE_SCHEMA(('AUTOMOTIVE_DESIGN { 1 0 10303 214 1 1 1 1 }'));
ENDSEC;
DATA;
#10=CARTESIAN_POINT('',(0.,0.,100.));
#20=DIRECTION('',(0.,0.,1.));
#30=DIRECTION('',(1.,0.,0.));
#40=AXIS2_PLACEMENT_3D('',#10,#20,#30);
#50=PLANE('',#40);
#60=CARTESIAN_POINT('',(0.,0.,100.));
#70=DIRECTION('',(1.,0.,0.));
#80=VECTOR('',#70,1.);
#90=LINE('',#60,#80);
#100=CARTESIAN_POINT('',(0.,0.,100.));
#110=VERTEX_POINT('',#100);
#120=CARTESIAN_POINT('',(20.,0.,100.));
#130=VERTEX_POINT('',#120);
#140=EDGE_CURVE('',#110,#130,#90,.T.);
#150=ORIENTED_EDGE('',*,*,#140,.F.);
#160=CARTESIAN_POINT('',(20.,0.,100.));
#170=DIRECTION('',(0.,1.,0.));
#180=VECTOR('',#170,1.);
#190=LINE('',#160,#180);
#200=CARTESIAN_POINT('',(20.,6.8,100.));
#210=VERTEX_POINT('',#200);
#220=EDGE_CURVE('',#130,#210,#190,.T.);
#230=ORIENTED_EDGE('',*,*,#220,.F.);
#240=CARTESIAN_POINT('',(15.,6.8,100.));
#250=DIRECTION('',(1.,0.,0.));
#260=VECTOR('',#250,1.);
#270=LINE('',#240,#260);
#280=CARTESIAN_POINT('',(15.,6.8,100.));
#290=VERTEX_POINT('',#280);
#300=EDGE_CURVE('',#290,#210,#270,.T.);
#310=ORIENTED_EDGE('',*,*,#300,.T.);
#320=CARTESIAN_POINT('',(15.,6.50000000000001,100.));
#330=DIRECTION('',(0.,-1.,0.));
#340=VECTOR('',#330,1.);
#350=LINE('',#320,#340);
#360=CARTESIAN_POINT('',(15.,9.8,100.));
#370=VERTEX_POINT('',#360);
#380=EDGE_CURVE('',#370,#290,#350,.T.);
#390=ORIENTED_EDGE('',*,*,#380,.T.);
#400=CARTESIAN_POINT('',(5.,9.8,100.));
#410=DIRECTION('',(1.,5.32907051820075E-16,0.));
#420=VECTOR('',#410,1.);
#430=LINE('',#400,#420);
#440=CARTESIAN_POINT('',(5.,9.8,100.));
#450=VERTEX_POINT('',#440);
#460=EDGE_CURVE('',#450,#370,#430,.T.);
#470=ORIENTED_EDGE('',*,*,#460,.T.);
#480=CARTESIAN_POINT('',(5.,4.9,100.));
#490=DIRECTION('',(0.,1.,0.));
#500=VECTOR('',#490,1.);
#510=LINE('',#480,#500);
#520=CARTESIAN_POINT('',(5.,6.8,100.));
#530=VERTEX_POINT('',#520);
#540=EDGE_CURVE('',#530,#450,#510,.T.);
#550=ORIENTED_EDGE('',*,*,#540,.T.);
#560=CARTESIAN_POINT('',(0.,6.8,100.));
#570=DIRECTION('',(1.,0.,0.));
#580=VECTOR('',#570,1.);
#590=LINE('',#560,#580);
#600=CARTESIAN_POINT('',(0.,6.8,100.));
#610=VERTEX_POINT('',#600);
#620=EDGE_CURVE('',#610,#530,#590,.T.);
#630=ORIENTED_EDGE('',*,*,#620,.T.);
#640=CARTESIAN_POINT('',(0.,0.,100.));
#650=DIRECTION('',(0.,1.,0.));
#660=VECTOR('',#650,1.);
#670=LINE('',#640,#660);
#680=EDGE_CURVE('',#110,#610,#670,.T.);
#690=ORIENTED_EDGE('',*,*,#680,.T.);
#700=EDGE_LOOP('',(#690,#630,#550,#470,#390,#310,#230,#150));
#710=FACE_OUTER_BOUND('',#700,.T.);
#720=ADVANCED_FACE('',(#710),#50,.F.);
#730=CARTESIAN_POINT('',(0.,0.,200.));
#740=DIRECTION('',(0.,0.,1.));
#750=DIRECTION('',(1.,0.,0.));
#760=AXIS2_PLACEMENT_3D('',#730,#740,#750);
#770=PLANE('',#760);
#780=CARTESIAN_POINT('',(0.,0.,200.));
#790=DIRECTION('',(0.,1.,0.));
#800=VECTOR('',#790,1.);
#810=LINE('',#780,#800);
#820=CARTESIAN_POINT('',(0.,0.,200.));
#830=VERTEX_POINT('',#820);
#840=CARTESIAN_POINT('',(0.,6.8,200.));
#850=VERTEX_POINT('',#840);
#860=EDGE_CURVE('',#830,#850,#810,.T.);
#870=ORIENTED_EDGE('',*,*,#860,.F.);
#880=CARTESIAN_POINT('',(0.,6.8,200.));
#890=DIRECTION('',(1.,0.,0.));
#900=VECTOR('',#890,1.);
#910=LINE('',#880,#900);
#920=CARTESIAN_POINT('',(5.,6.8,200.));
#930=VERTEX_POINT('',#920);
#940=EDGE_CURVE('',#850,#930,#910,.T.);
#950=ORIENTED_EDGE('',*,*,#940,.F.);
#960=CARTESIAN_POINT('',(5.,4.9,200.));
#970=DIRECTION('',(0.,1.,0.));
#980=VECTOR('',#970,1.);
#990=LINE('',#960,#980);
#1000=CARTESIAN_POINT('',(5.,9.8,200.));
#1010=VERTEX_POINT('',#1000);
#1020=EDGE_CURVE('',#930,#1010,#990,.T.);
#1030=ORIENTED_EDGE('',*,*,#1020,.F.);
#1040=CARTESIAN_POINT('',(5.,9.8,200.));
#1050=DIRECTION('',(1.,5.32907051820075E-16,0.));
#1060=VECTOR('',#1050,1.);
#1070=LINE('',#1040,#1060);
#1080=CARTESIAN_POINT('',(15.,9.8,200.));
#1090=VERTEX_POINT('',#1080);
#1100=EDGE_CURVE('',#1010,#1090,#1070,.T.);
#1110=ORIENTED_EDGE('',*,*,#1100,.F.);
#1120=CARTESIAN_POINT('',(15.,6.50000000000001,200.));
#1130=DIRECTION('',(0.,-1.,0.));
#1140=VECTOR('',#1130,1.);
#1150=LINE('',#1120,#1140);
#1160=CARTESIAN_POINT('',(15.,6.8,200.));
#1170=VERTEX_POINT('',#1160);
#1180=EDGE_CURVE('',#1090,#1170,#1150,.T.);
#1190=ORIENTED_EDGE('',*,*,#1180,.F.);
#1200=CARTESIAN_POINT('',(15.,6.8,200.));
#1210=DIRECTION('',(1.,0.,0.));
#1220=VECTOR('',#1210,1.);
#1230=LINE('',#1200,#1220);
#1240=CARTESIAN_POINT('',(20.,6.8,200.));
#1250=VERTEX_POINT('',#1240);
#1260=EDGE_CURVE('',#1170,#1250,#1230,.T.);
#1270=ORIENTED_EDGE('',*,*,#1260,.F.);
#1280=CARTESIAN_POINT('',(20.,0.,200.));
#1290=DIRECTION('',(0.,1.,0.));
#1300=VECTOR('',#1290,1.);
#1310=LINE('',#1280,#1300);
#1320=CARTESIAN_POINT('',(20.,0.,200.));
#1330=VERTEX_POINT('',#1320);
#1340=EDGE_CURVE('',#1330,#1250,#1310,.T.);
#1350=ORIENTED_EDGE('',*,*,#1340,.T.);
#1360=CARTESIAN_POINT('',(0.,0.,200.));
#1370=DIRECTION('',(1.,0.,0.));
#1380=VECTOR('',#1370,1.);
#1390=LINE('',#1360,#1380);
#1400=EDGE_CURVE('',#830,#1330,#1390,.T.);
#1410=ORIENTED_EDGE('',*,*,#1400,.T.);
#1420=EDGE_LOOP('',(#1410,#1350,#1270,#1190,#1110,#1030,#950,#870));
#1430=FACE_OUTER_BOUND('',#1420,.T.);
#1440=ADVANCED_FACE('',(#1430),#770,.T.);
#1450=CARTESIAN_POINT('',(20.,0.,0.));
#1460=DIRECTION('',(-0.,-1.,-0.));
#1470=DIRECTION('',(-1.,0.,0.));
#1480=AXIS2_PLACEMENT_3D('',#1450,#1460,#1470);
#1490=PLANE('',#1480);
#1500=CARTESIAN_POINT('',(0.,0.,0.));
#1510=DIRECTION('',(0.,0.,1.));
#1520=VECTOR('',#1510,1.);
#1530=LINE('',#1500,#1520);
#1540=EDGE_CURVE('',#110,#830,#1530,.T.);
#1550=ORIENTED_EDGE('',*,*,#1540,.F.);
#1560=ORIENTED_EDGE('',*,*,#1400,.F.);
#1570=CARTESIAN_POINT('',(20.,0.,0.));
#1580=DIRECTION('',(0.,0.,1.));
#1590=VECTOR('',#1580,1.);
#1600=LINE('',#1570,#1590);
#1610=EDGE_CURVE('',#130,#1330,#1600,.T.);
#1620=ORIENTED_EDGE('',*,*,#1610,.T.);
#1630=ORIENTED_EDGE('',*,*,#140,.T.);
#1640=EDGE_LOOP('',(#1630,#1620,#1560,#1550));
#1650=FACE_OUTER_BOUND('',#1640,.T.);
#1660=ADVANCED_FACE('',(#1650),#1490,.T.);
#1670=CARTESIAN_POINT('',(20.,4.9,0.));
#1680=DIRECTION('',(1.,0.,0.));
#1690=DIRECTION('',(0.,-1.,0.));
#1700=AXIS2_PLACEMENT_3D('',#1670,#1680,#1690);
#1710=PLANE('',#1700);
#1720=ORIENTED_EDGE('',*,*,#1610,.F.);
#1730=ORIENTED_EDGE('',*,*,#1340,.F.);
#1740=CARTESIAN_POINT('',(20.,6.8,0.));
#1750=DIRECTION('',(0.,0.,1.));
#1760=VECTOR('',#1750,1.);
#1770=LINE('',#1740,#1760);
#1780=EDGE_CURVE('',#210,#1250,#1770,.T.);
#1790=ORIENTED_EDGE('',*,*,#1780,.T.);
#1800=ORIENTED_EDGE('',*,*,#220,.T.);
#1810=EDGE_LOOP('',(#1800,#1790,#1730,#1720));
#1820=FACE_OUTER_BOUND('',#1810,.T.);
#1830=ADVANCED_FACE('',(#1820),#1710,.T.);
#1840=CARTESIAN_POINT('',(15.,6.8,0.));
#1850=DIRECTION('',(-0.,1.,0.));
#1860=DIRECTION('',(1.,0.,0.));
#1870=AXIS2_PLACEMENT_3D('',#1840,#1850,#1860);
#1880=PLANE('',#1870);
#1890=ORIENTED_EDGE('',*,*,#1780,.F.);
#1900=ORIENTED_EDGE('',*,*,#1260,.T.);
#1910=CARTESIAN_POINT('',(15.,6.8,0.));
#1920=DIRECTION('',(0.,0.,1.));
#1930=VECTOR('',#1920,1.);
#1940=LINE('',#1910,#1930);
#1950=EDGE_CURVE('',#290,#1170,#1940,.T.);
#1960=ORIENTED_EDGE('',*,*,#1950,.T.);
#1970=ORIENTED_EDGE('',*,*,#300,.F.);
#1980=EDGE_LOOP('',(#1970,#1960,#1900,#1890));
#1990=FACE_OUTER_BOUND('',#1980,.T.);
#2000=ADVANCED_FACE('',(#1990),#1880,.T.);
#2010=CARTESIAN_POINT('',(15.,6.50000000000001,0.));
#2020=DIRECTION('',(1.,0.,0.));
#2030=DIRECTION('',(0.,-1.,0.));
#2040=AXIS2_PLACEMENT_3D('',#2010,#2020,#2030);
#2050=PLANE('',#2040);
#2060=ORIENTED_EDGE('',*,*,#1950,.F.);
#2070=ORIENTED_EDGE('',*,*,#1180,.T.);
#2080=CARTESIAN_POINT('',(15.,9.8,0.));
#2090=DIRECTION('',(0.,0.,1.));
#2100=VECTOR('',#2090,1.);
#2110=LINE('',#2080,#2100);
#2120=EDGE_CURVE('',#370,#1090,#2110,.T.);
#2130=ORIENTED_EDGE('',*,*,#2120,.T.);
#2140=ORIENTED_EDGE('',*,*,#380,.F.);
#2150=EDGE_LOOP('',(#2140,#2130,#2070,#2060));
#2160=FACE_OUTER_BOUND('',#2150,.T.);
#2170=ADVANCED_FACE('',(#2160),#2050,.T.);
#2180=CARTESIAN_POINT('',(5.,9.8,0.));
#2190=DIRECTION('',(-5.32907051820075E-16,1.,0.));
#2200=DIRECTION('',(1.,5.32907051820075E-16,0.));
#2210=AXIS2_PLACEMENT_3D('',#2180,#2190,#2200);
#2220=PLANE('',#2210);
#2230=ORIENTED_EDGE('',*,*,#2120,.F.);
#2240=ORIENTED_EDGE('',*,*,#1100,.T.);
#2250=CARTESIAN_POINT('',(5.,9.8,0.));
#2260=DIRECTION('',(0.,0.,1.));
#2270=VECTOR('',#2260,1.);
#2280=LINE('',#2250,#2270);
#2290=EDGE_CURVE('',#450,#1010,#2280,.T.);
#2300=ORIENTED_EDGE('',*,*,#2290,.T.);
#2310=ORIENTED_EDGE('',*,*,#460,.F.);
#2320=EDGE_LOOP('',(#2310,#2300,#2240,#2230));
#2330=FACE_OUTER_BOUND('',#2320,.T.);
#2340=ADVANCED_FACE('',(#2330),#2220,.T.);
#2350=CARTESIAN_POINT('',(5.,4.9,0.));
#2360=DIRECTION('',(-1.,0.,0.));
#2370=DIRECTION('',(0.,1.,0.));
#2380=AXIS2_PLACEMENT_3D('',#2350,#2360,#2370);
#2390=PLANE('',#2380);
#2400=ORIENTED_EDGE('',*,*,#2290,.F.);
#2410=ORIENTED_EDGE('',*,*,#1020,.T.);
#2420=CARTESIAN_POINT('',(5.,6.8,0.));
#2430=DIRECTION('',(0.,0.,1.));
#2440=VECTOR('',#2430,1.);
#2450=LINE('',#2420,#2440);
#2460=EDGE_CURVE('',#530,#930,#2450,.T.);
#2470=ORIENTED_EDGE('',*,*,#2460,.T.);
#2480=ORIENTED_EDGE('',*,*,#540,.F.);
#2490=EDGE_LOOP('',(#2480,#2470,#2410,#2400));
#2500=FACE_OUTER_BOUND('',#2490,.T.);
#2510=ADVANCED_FACE('',(#2500),#2390,.T.);
#2520=CARTESIAN_POINT('',(0.,6.8,0.));
#2530=DIRECTION('',(-0.,1.,0.));
#2540=DIRECTION('',(1.,0.,0.));
#2550=AXIS2_PLACEMENT_3D('',#2520,#2530,#2540);
#2560=PLANE('',#2550);
#2570=ORIENTED_EDGE('',*,*,#2460,.F.);
#2580=ORIENTED_EDGE('',*,*,#940,.T.);
#2590=CARTESIAN_POINT('',(0.,6.8,0.));
#2600=DIRECTION('',(0.,0.,1.));
#2610=VECTOR('',#2600,1.);
#2620=LINE('',#2590,#2610);
#2630=EDGE_CURVE('',#610,#850,#2620,.T.);
#2640=ORIENTED_EDGE('',*,*,#2630,.T.);
#2650=ORIENTED_EDGE('',*,*,#620,.F.);
#2660=EDGE_LOOP('',(#2650,#2640,#2580,#2570));
#2670=FACE_OUTER_BOUND('',#2660,.T.);
#2680=ADVANCED_FACE('',(#2670),#2560,.T.);
#2690=CARTESIAN_POINT('',(0.,0.,0.));
#2700=DIRECTION('',(-1.,0.,0.));
#2710=DIRECTION('',(0.,1.,0.));
#2720=AXIS2_PLACEMENT_3D('',#2690,#2700,#2710);
#2730=PLANE('',#2720);
#2740=ORIENTED_EDGE('',*,*,#2630,.F.);
#2750=ORIENTED_EDGE('',*,*,#860,.T.);
#2760=ORIENTED_EDGE('',*,*,#1540,.T.);
#2770=ORIENTED_EDGE('',*,*,#680,.F.);
#2780=EDGE_LOOP('',(#2770,#2760,#2750,#2740));
#2790=FACE_OUTER_BOUND('',#2780,.T.);
#2800=ADVANCED_FACE('',(#2790),#2730,.T.);
#2810=CLOSED_SHELL('',(#1660,#1830,#2000,#2170,#2340,#2510,#2680,#2800,
#1440,#720));
#2820=MANIFOLD_SOLID_BREP('',#2810);
#2830=CARTESIAN_POINT('',(0.,0.,0.));
#2840=DIRECTION('',(0.,0.,1.));
#2850=DIRECTION('',(1.,0.,0.));
#2860=AXIS2_PLACEMENT_3D('',#2830,#2840,#2850);
#2870=APPLICATION_CONTEXT(' ');
#2880=APPLICATION_PROTOCOL_DEFINITION(' ','automotive_design',1998,#2870
);
#2890=PRODUCT_CONTEXT('',#2870,'mechanical');
#2900=PRODUCT_DEFINITION_CONTEXT('part definition',#2870,'design');
#2910=PRODUCT(
'Klemmschienenprofil-MMS-55_19.89.8x3000mm_55.0125.2_PX176033',
'Klemmschienenprofil-MMS-55_19.89.8x3000mm_55.0125.2_PX176033','',(#2890
));
#2920=PRODUCT_RELATED_PRODUCT_CATEGORY('part',' ',(#2910));
#2930=PRODUCT_DEFINITION_FORMATION_WITH_SPECIFIED_SOURCE('','',#2910,
.BOUGHT.);
#2940=PRODUCT_DEFINITION('',' ',#2930,#2900);
#2950=PRODUCT_DEFINITION_SHAPE('','',#2940);
#2960=DIMENSIONAL_EXPONENTS(1.,0.,0.,0.,0.,0.,0.);
#2970=DIMENSIONAL_EXPONENTS(0.,0.,0.,0.,0.,0.,0.);
#2980=DIMENSIONAL_EXPONENTS(0.,0.,0.,0.,0.,0.,0.);
#2990=(LENGTH_UNIT() NAMED_UNIT(*) SI_UNIT(.MILLI.,.METRE.));
#3000=(NAMED_UNIT(*) PLANE_ANGLE_UNIT() SI_UNIT($,.RADIAN.));
#3010=(NAMED_UNIT(*) SI_UNIT($,.STERADIAN.) SOLID_ANGLE_UNIT());
#3020=(GEOMETRIC_REPRESENTATION_CONTEXT(3) 
GLOBAL_UNCERTAINTY_ASSIGNED_CONTEXT((#3030)) 
GLOBAL_UNIT_ASSIGNED_CONTEXT((#2990,#3000,#3010)) REPRESENTATION_CONTEXT
('',''));
#3030=UNCERTAINTY_MEASURE_WITH_UNIT(LENGTH_MEASURE(1.E-6),#2990,
'distance_accuracy_value','maximum gap value');
#3040=ADVANCED_BREP_SHAPE_REPRESENTATION('',(#2860,#2820),#3020);
#3050=SHAPE_DEFINITION_REPRESENTATION(#2950,#3040);
#3060=COLOUR_RGB('',0.690196096897125,0.886274576187134,1.);
#3070=FILL_AREA_STYLE_COLOUR('',#3060);
#3080=FILL_AREA_STYLE('',(#3070));
#3090=SURFACE_STYLE_FILL_AREA(#3080);
#3100=SURFACE_SIDE_STYLE('',(#3090));
#3110=SURFACE_STYLE_USAGE(.BOTH.,#3100);
#3120=PRESENTATION_STYLE_ASSIGNMENT((#3110));
#3130=STYLED_ITEM('',(#3120),#2820);
#3140=DRAUGHTING_MODEL('',(#3130),#3020);
#3150=CARTESIAN_POINT('',(0.,0.,-100.));
#3160=DIRECTION('',(0.,0.,1.));
#3170=DIRECTION('',(1.,0.,0.));
#3180=AXIS2_PLACEMENT_3D('',#3150,#3160,#3170);
#3190=ITEM_DEFINED_TRANSFORMATION(
'Klemmschienenprofil-MMS-55_19.89.8x3000mm_55.0125.2_PX176033','',#2860,
#3180);
#3200=APPLICATION_CONTEXT(' ');
#3210=APPLICATION_PROTOCOL_DEFINITION(' ','automotive_design',1998,#3200
);
#3220=PRODUCT_CONTEXT('',#3200,'mechanical');
#3230=PRODUCT_DEFINITION_CONTEXT('part definition',#3200,'design');
#3240=PRODUCT(
'Klemmschienenprofil-MMS-55_19.89.8x3000mm_55.0125.2_PX176033',
'Klemmschienenprofil-MMS-55_19.89.8x3000mm_55.0125.2_PX176033','',(#3220
));
#3250=PRODUCT_RELATED_PRODUCT_CATEGORY('part',' ',(#3240));
#3260=PRODUCT_DEFINITION_FORMATION_WITH_SPECIFIED_SOURCE('','',#3240,
.BOUGHT.);
#3270=PRODUCT_DEFINITION('',' ',#3260,#3230);
#3280=PRODUCT_DEFINITION_SHAPE('','',#3270);
#3290=DIMENSIONAL_EXPONENTS(1.,0.,0.,0.,0.,0.,0.);
#3300=DIMENSIONAL_EXPONENTS(0.,0.,0.,0.,0.,0.,0.);
#3310=DIMENSIONAL_EXPONENTS(0.,0.,0.,0.,0.,0.,0.);
#3320=(LENGTH_UNIT() NAMED_UNIT(*) SI_UNIT(.MILLI.,.METRE.));
#3330=(NAMED_UNIT(*) PLANE_ANGLE_UNIT() SI_UNIT($,.RADIAN.));
#3340=(NAMED_UNIT(*) SI_UNIT($,.STERADIAN.) SOLID_ANGLE_UNIT());
#3350=(GEOMETRIC_REPRESENTATION_CONTEXT(3) 
GLOBAL_UNCERTAINTY_ASSIGNED_CONTEXT((#3360)) 
GLOBAL_UNIT_ASSIGNED_CONTEXT((#3320,#3330,#3340)) REPRESENTATION_CONTEXT
('',''));
#3360=UNCERTAINTY_MEASURE_WITH_UNIT(LENGTH_MEASURE(1.E-6),#3320,
'distance_accuracy_value','maximum gap value');
#3370=SHAPE_REPRESENTATION('',(#2860,#3180),#3350);
#3380=SHAPE_DEFINITION_REPRESENTATION(#3280,#3370);
#3390=(REPRESENTATION_RELATIONSHIP('','',#3040,#3370) 
REPRESENTATION_RELATIONSHIP_WITH_TRANSFORMATION(#3190) 
SHAPE_REPRESENTATION_RELATIONSHIP());
#3400=NEXT_ASSEMBLY_USAGE_OCCURRENCE('1','',
'Klemmschienenprofil-MMS-55_19.89.8x3000mm_55.0125.2_PX176033',#3270,
#2940,'');
#3410=PRODUCT_DEFINITION_SHAPE('','',#3400);
#3420=CONTEXT_DEPENDENT_SHAPE_REPRESENTATION(#3390,#3410);
ENDSEC;
END-ISO-10303-21;
