ISO-10303-21;
HEADER;
FILE_DESCRIPTION(('Creo Elements/Direct Modeling STEP Export'),'2;1');
FILE_NAME(
'//KR-CAD2/PhoenixTemp/karl.letzgus/Konvertierung/55.0205.2_Haltewinkel-
MMS-55_50x50x50x6-M8.stp','2022-03-21T 8:07:17',(''),(''),
'PTC Creo Elements/Direct Modeling STEP processor for AP214 (Solid Model
)',
'PTC Creo Elements/Direct Modeling 19.0C  15-Aug-2015 (C) Parametric Tec
hnology GmbH','');
FILE_SCHEMA(('AUTOMOTIVE_DESIGN { 1 0 10303 214 1 1 1 1 }'));
ENDSEC;
DATA;
#10=CARTESIAN_POINT('',(0.,0.,-5.));
#20=DIRECTION('',(0.,0.,1.));
#30=DIRECTION('',(1.,0.,0.));
#40=AXIS2_PLACEMENT_3D('',#10,#20,#30);
#50=PLANE('',#40);
#60=CARTESIAN_POINT('',(0.,40.,-5.));
#70=DIRECTION('',(0.,-1.,0.));
#80=VECTOR('',#70,1.);
#90=LINE('',#60,#80);
#100=CARTESIAN_POINT('',(0.,50.,-5.));
#110=VERTEX_POINT('',#100);
#120=CARTESIAN_POINT('',(0.,0.,-5.));
#130=VERTEX_POINT('',#120);
#140=EDGE_CURVE('',#110,#130,#90,.T.);
#150=ORIENTED_EDGE('',*,*,#140,.F.);
#160=CARTESIAN_POINT('',(0.,0.,-5.));
#170=DIRECTION('',(1.,0.,0.));
#180=VECTOR('',#170,1.);
#190=LINE('',#160,#180);
#200=CARTESIAN_POINT('',(50.,0.,-5.));
#210=VERTEX_POINT('',#200);
#220=EDGE_CURVE('',#130,#210,#190,.T.);
#230=ORIENTED_EDGE('',*,*,#220,.F.);
#240=CARTESIAN_POINT('',(50.,0.,-5.));
#250=DIRECTION('',(0.,1.,0.));
#260=VECTOR('',#250,1.);
#270=LINE('',#240,#260);
#280=CARTESIAN_POINT('',(50.,6.,-5.));
#290=VERTEX_POINT('',#280);
#300=EDGE_CURVE('',#210,#290,#270,.T.);
#310=ORIENTED_EDGE('',*,*,#300,.F.);
#320=CARTESIAN_POINT('',(0.,6.,-5.));
#330=DIRECTION('',(1.,0.,0.));
#340=VECTOR('',#330,1.);
#350=LINE('',#320,#340);
#360=CARTESIAN_POINT('',(6.,6.,-5.));
#370=VERTEX_POINT('',#360);
#380=EDGE_CURVE('',#370,#290,#350,.T.);
#390=ORIENTED_EDGE('',*,*,#380,.T.);
#400=CARTESIAN_POINT('',(6.,0.,-5.));
#410=DIRECTION('',(0.,-1.,0.));
#420=VECTOR('',#410,1.);
#430=LINE('',#400,#420);
#440=CARTESIAN_POINT('',(6.,50.,-5.));
#450=VERTEX_POINT('',#440);
#460=EDGE_CURVE('',#450,#370,#430,.T.);
#470=ORIENTED_EDGE('',*,*,#460,.T.);
#480=CARTESIAN_POINT('',(40.,50.,-5.));
#490=DIRECTION('',(-1.,0.,0.));
#500=VECTOR('',#490,1.);
#510=LINE('',#480,#500);
#520=EDGE_CURVE('',#450,#110,#510,.T.);
#530=ORIENTED_EDGE('',*,*,#520,.F.);
#540=EDGE_LOOP('',(#530,#470,#390,#310,#230,#150));
#550=FACE_OUTER_BOUND('',#540,.T.);
#560=ADVANCED_FACE('',(#550),#50,.F.);
#570=CARTESIAN_POINT('',(6.,5.,-4.0000024));
#580=DIRECTION('',(-1.,0.,0.));
#590=DIRECTION('',(0.,1.,0.));
#600=AXIS2_PLACEMENT_3D('',#570,#580,#590);
#610=PLANE('',#600);
#620=CARTESIAN_POINT('',(6.,25.,20.));
#630=DIRECTION('',(-1.,0.,0.));
#640=DIRECTION('',(0.,1.,0.));
#650=AXIS2_PLACEMENT_3D('',#620,#630,#640);
#660=CIRCLE('',#650,4.5);
#670=CARTESIAN_POINT('',(6.,29.5,20.));
#680=VERTEX_POINT('',#670);
#690=CARTESIAN_POINT('',(6.,20.5,20.));
#700=VERTEX_POINT('',#690);
#710=EDGE_CURVE('',#680,#700,#660,.T.);
#720=ORIENTED_EDGE('',*,*,#710,.T.);
#730=EDGE_CURVE('',#700,#680,#660,.T.);
#740=ORIENTED_EDGE('',*,*,#730,.T.);
#750=EDGE_LOOP('',(#740,#720));
#760=FACE_BOUND('',#750,.T.);
#770=CARTESIAN_POINT('',(6.,6.,-4.0000024));
#780=DIRECTION('',(0.,0.,1.));
#790=VECTOR('',#780,1.);
#800=LINE('',#770,#790);
#810=CARTESIAN_POINT('',(6.,6.,45.));
#820=VERTEX_POINT('',#810);
#830=EDGE_CURVE('',#370,#820,#800,.T.);
#840=ORIENTED_EDGE('',*,*,#830,.F.);
#850=CARTESIAN_POINT('',(6.,0.,45.));
#860=DIRECTION('',(0.,-1.,0.));
#870=VECTOR('',#860,1.);
#880=LINE('',#850,#870);
#890=CARTESIAN_POINT('',(6.,50.,45.));
#900=VERTEX_POINT('',#890);
#910=EDGE_CURVE('',#900,#820,#880,.T.);
#920=ORIENTED_EDGE('',*,*,#910,.T.);
#930=CARTESIAN_POINT('',(6.,50.,0.));
#940=DIRECTION('',(0.,0.,1.));
#950=VECTOR('',#940,1.);
#960=LINE('',#930,#950);
#970=EDGE_CURVE('',#450,#900,#960,.T.);
#980=ORIENTED_EDGE('',*,*,#970,.T.);
#990=ORIENTED_EDGE('',*,*,#460,.F.);
#1000=EDGE_LOOP('',(#990,#980,#920,#840));
#1010=FACE_OUTER_BOUND('',#1000,.T.);
#1020=ADVANCED_FACE('',(#760,#1010),#610,.F.);
#1030=CARTESIAN_POINT('',(43.3,6.,-4.0000024));
#1040=DIRECTION('',(-0.,-1.,-0.));
#1050=DIRECTION('',(-1.,0.,0.));
#1060=AXIS2_PLACEMENT_3D('',#1030,#1040,#1050);
#1070=PLANE('',#1060);
#1080=CARTESIAN_POINT('',(25.,6.,20.));
#1090=DIRECTION('',(0.,-1.,0.));
#1100=DIRECTION('',(-1.,0.,0.));
#1110=AXIS2_PLACEMENT_3D('',#1080,#1090,#1100);
#1120=CIRCLE('',#1110,3.99999972024993);
#1130=CARTESIAN_POINT('',(21.0000002797501,6.,20.));
#1140=VERTEX_POINT('',#1130);
#1150=CARTESIAN_POINT('',(28.9999997202499,6.,20.));
#1160=VERTEX_POINT('',#1150);
#1170=EDGE_CURVE('',#1140,#1160,#1120,.T.);
#1180=ORIENTED_EDGE('',*,*,#1170,.T.);
#1190=EDGE_CURVE('',#1160,#1140,#1120,.T.);
#1200=ORIENTED_EDGE('',*,*,#1190,.T.);
#1210=EDGE_LOOP('',(#1200,#1180));
#1220=FACE_BOUND('',#1210,.T.);
#1230=ORIENTED_EDGE('',*,*,#830,.T.);
#1240=ORIENTED_EDGE('',*,*,#380,.F.);
#1250=CARTESIAN_POINT('',(50.,6.,0.));
#1260=DIRECTION('',(0.,0.,-1.));
#1270=VECTOR('',#1260,1.);
#1280=LINE('',#1250,#1270);
#1290=CARTESIAN_POINT('',(50.,6.,45.));
#1300=VERTEX_POINT('',#1290);
#1310=EDGE_CURVE('',#1300,#290,#1280,.T.);
#1320=ORIENTED_EDGE('',*,*,#1310,.T.);
#1330=CARTESIAN_POINT('',(0.,6.,45.));
#1340=DIRECTION('',(1.,0.,0.));
#1350=VECTOR('',#1340,1.);
#1360=LINE('',#1330,#1350);
#1370=EDGE_CURVE('',#820,#1300,#1360,.T.);
#1380=ORIENTED_EDGE('',*,*,#1370,.T.);
#1390=EDGE_LOOP('',(#1380,#1320,#1240,#1230));
#1400=FACE_OUTER_BOUND('',#1390,.T.);
#1410=ADVANCED_FACE('',(#1220,#1400),#1070,.F.);
#1420=CARTESIAN_POINT('',(450.,25.,20.));
#1430=DIRECTION('',(-1.,0.,0.));
#1440=DIRECTION('',(0.,1.,0.));
#1450=AXIS2_PLACEMENT_3D('',#1420,#1430,#1440);
#1460=CYLINDRICAL_SURFACE('',#1450,4.5);
#1470=CARTESIAN_POINT('',(450.,29.5,20.));
#1480=DIRECTION('',(-1.,0.,0.));
#1490=VECTOR('',#1480,1.);
#1500=LINE('',#1470,#1490);
#1510=CARTESIAN_POINT('',(0.,29.5,20.));
#1520=VERTEX_POINT('',#1510);
#1530=EDGE_CURVE('',#680,#1520,#1500,.T.);
#1540=ORIENTED_EDGE('',*,*,#1530,.F.);
#1550=CARTESIAN_POINT('',(0.,25.,20.));
#1560=DIRECTION('',(-1.,0.,0.));
#1570=DIRECTION('',(0.,1.,0.));
#1580=AXIS2_PLACEMENT_3D('',#1550,#1560,#1570);
#1590=CIRCLE('',#1580,4.5);
#1600=CARTESIAN_POINT('',(0.,20.5,20.));
#1610=VERTEX_POINT('',#1600);
#1620=EDGE_CURVE('',#1610,#1520,#1590,.T.);
#1630=ORIENTED_EDGE('',*,*,#1620,.T.);
#1640=CARTESIAN_POINT('',(450.,20.5,20.));
#1650=DIRECTION('',(-1.,0.,0.));
#1660=VECTOR('',#1650,1.);
#1670=LINE('',#1640,#1660);
#1680=EDGE_CURVE('',#700,#1610,#1670,.T.);
#1690=ORIENTED_EDGE('',*,*,#1680,.T.);
#1700=ORIENTED_EDGE('',*,*,#730,.F.);
#1710=EDGE_LOOP('',(#1700,#1690,#1630,#1540));
#1720=FACE_OUTER_BOUND('',#1710,.T.);
#1730=ADVANCED_FACE('',(#1720),#1460,.F.);
#1740=CARTESIAN_POINT('',(450.,25.,20.));
#1750=DIRECTION('',(-1.,0.,0.));
#1760=DIRECTION('',(0.,1.,0.));
#1770=AXIS2_PLACEMENT_3D('',#1740,#1750,#1760);
#1780=CYLINDRICAL_SURFACE('',#1770,4.5);
#1790=ORIENTED_EDGE('',*,*,#710,.F.);
#1800=ORIENTED_EDGE('',*,*,#1680,.F.);
#1810=EDGE_CURVE('',#1520,#1610,#1590,.T.);
#1820=ORIENTED_EDGE('',*,*,#1810,.T.);
#1830=ORIENTED_EDGE('',*,*,#1530,.T.);
#1840=EDGE_LOOP('',(#1830,#1820,#1800,#1790));
#1850=FACE_OUTER_BOUND('',#1840,.T.);
#1860=ADVANCED_FACE('',(#1850),#1780,.F.);
#1870=CARTESIAN_POINT('',(0.,0.,45.));
#1880=DIRECTION('',(0.,0.,1.));
#1890=DIRECTION('',(1.,0.,0.));
#1900=AXIS2_PLACEMENT_3D('',#1870,#1880,#1890);
#1910=PLANE('',#1900);
#1920=CARTESIAN_POINT('',(40.,50.,45.));
#1930=DIRECTION('',(-1.,0.,0.));
#1940=VECTOR('',#1930,1.);
#1950=LINE('',#1920,#1940);
#1960=CARTESIAN_POINT('',(0.,50.,45.));
#1970=VERTEX_POINT('',#1960);
#1980=EDGE_CURVE('',#900,#1970,#1950,.T.);
#1990=ORIENTED_EDGE('',*,*,#1980,.T.);
#2000=ORIENTED_EDGE('',*,*,#910,.F.);
#2010=ORIENTED_EDGE('',*,*,#1370,.F.);
#2020=CARTESIAN_POINT('',(50.,0.,45.));
#2030=DIRECTION('',(0.,1.,0.));
#2040=VECTOR('',#2030,1.);
#2050=LINE('',#2020,#2040);
#2060=CARTESIAN_POINT('',(50.,0.,45.));
#2070=VERTEX_POINT('',#2060);
#2080=EDGE_CURVE('',#2070,#1300,#2050,.T.);
#2090=ORIENTED_EDGE('',*,*,#2080,.T.);
#2100=CARTESIAN_POINT('',(0.,0.,45.));
#2110=DIRECTION('',(1.,0.,0.));
#2120=VECTOR('',#2110,1.);
#2130=LINE('',#2100,#2120);
#2140=CARTESIAN_POINT('',(0.,0.,45.));
#2150=VERTEX_POINT('',#2140);
#2160=EDGE_CURVE('',#2150,#2070,#2130,.T.);
#2170=ORIENTED_EDGE('',*,*,#2160,.T.);
#2180=CARTESIAN_POINT('',(0.,40.,45.));
#2190=DIRECTION('',(0.,-1.,0.));
#2200=VECTOR('',#2190,1.);
#2210=LINE('',#2180,#2200);
#2220=EDGE_CURVE('',#1970,#2150,#2210,.T.);
#2230=ORIENTED_EDGE('',*,*,#2220,.T.);
#2240=EDGE_LOOP('',(#2230,#2170,#2090,#2010,#2000,#1990));
#2250=FACE_OUTER_BOUND('',#2240,.T.);
#2260=ADVANCED_FACE('',(#2250),#1910,.T.);
#2270=CARTESIAN_POINT('',(0.,0.,0.));
#2280=DIRECTION('',(-1.,0.,0.));
#2290=DIRECTION('',(0.,1.,0.));
#2300=AXIS2_PLACEMENT_3D('',#2270,#2280,#2290);
#2310=PLANE('',#2300);
#2320=ORIENTED_EDGE('',*,*,#1810,.F.);
#2330=ORIENTED_EDGE('',*,*,#1620,.F.);
#2340=EDGE_LOOP('',(#2330,#2320));
#2350=FACE_BOUND('',#2340,.T.);
#2360=CARTESIAN_POINT('',(0.,50.,0.));
#2370=DIRECTION('',(0.,0.,1.));
#2380=VECTOR('',#2370,1.);
#2390=LINE('',#2360,#2380);
#2400=EDGE_CURVE('',#110,#1970,#2390,.T.);
#2410=ORIENTED_EDGE('',*,*,#2400,.F.);
#2420=ORIENTED_EDGE('',*,*,#2220,.F.);
#2430=CARTESIAN_POINT('',(0.,0.,0.));
#2440=DIRECTION('',(0.,0.,1.));
#2450=VECTOR('',#2440,1.);
#2460=LINE('',#2430,#2450);
#2470=EDGE_CURVE('',#130,#2150,#2460,.T.);
#2480=ORIENTED_EDGE('',*,*,#2470,.T.);
#2490=ORIENTED_EDGE('',*,*,#140,.T.);
#2500=EDGE_LOOP('',(#2490,#2480,#2420,#2410));
#2510=FACE_OUTER_BOUND('',#2500,.T.);
#2520=ADVANCED_FACE('',(#2350,#2510),#2310,.T.);
#2530=CARTESIAN_POINT('',(40.,0.,0.));
#2540=DIRECTION('',(-0.,-1.,-0.));
#2550=DIRECTION('',(-1.,0.,0.));
#2560=AXIS2_PLACEMENT_3D('',#2530,#2540,#2550);
#2570=PLANE('',#2560);
#2580=CARTESIAN_POINT('',(25.,0.,20.));
#2590=DIRECTION('',(0.,-1.,0.));
#2600=DIRECTION('',(-1.,0.,0.));
#2610=AXIS2_PLACEMENT_3D('',#2580,#2590,#2600);
#2620=CIRCLE('',#2610,4.);
#2630=CARTESIAN_POINT('',(21.,-5.55111512312578E-17,20.));
#2640=VERTEX_POINT('',#2630);
#2650=CARTESIAN_POINT('',(29.,-5.55111512312578E-17,20.));
#2660=VERTEX_POINT('',#2650);
#2670=EDGE_CURVE('',#2640,#2660,#2620,.T.);
#2680=ORIENTED_EDGE('',*,*,#2670,.F.);
#2690=EDGE_CURVE('',#2660,#2640,#2620,.T.);
#2700=ORIENTED_EDGE('',*,*,#2690,.F.);
#2710=EDGE_LOOP('',(#2700,#2680));
#2720=FACE_BOUND('',#2710,.T.);
#2730=ORIENTED_EDGE('',*,*,#2470,.F.);
#2740=ORIENTED_EDGE('',*,*,#2160,.F.);
#2750=CARTESIAN_POINT('',(50.,0.,0.));
#2760=DIRECTION('',(0.,0.,1.));
#2770=VECTOR('',#2760,1.);
#2780=LINE('',#2750,#2770);
#2790=EDGE_CURVE('',#210,#2070,#2780,.T.);
#2800=ORIENTED_EDGE('',*,*,#2790,.T.);
#2810=ORIENTED_EDGE('',*,*,#220,.T.);
#2820=EDGE_LOOP('',(#2810,#2800,#2740,#2730));
#2830=FACE_OUTER_BOUND('',#2820,.T.);
#2840=ADVANCED_FACE('',(#2720,#2830),#2570,.T.);
#2850=CARTESIAN_POINT('',(50.,40.,0.));
#2860=DIRECTION('',(1.,0.,0.));
#2870=DIRECTION('',(0.,-1.,0.));
#2880=AXIS2_PLACEMENT_3D('',#2850,#2860,#2870);
#2890=PLANE('',#2880);
#2900=ORIENTED_EDGE('',*,*,#300,.T.);
#2910=ORIENTED_EDGE('',*,*,#2790,.F.);
#2920=ORIENTED_EDGE('',*,*,#2080,.F.);
#2930=ORIENTED_EDGE('',*,*,#1310,.F.);
#2940=EDGE_LOOP('',(#2930,#2920,#2910,#2900));
#2950=FACE_OUTER_BOUND('',#2940,.T.);
#2960=ADVANCED_FACE('',(#2950),#2890,.T.);
#2970=CARTESIAN_POINT('',(0.,50.,0.));
#2980=DIRECTION('',(-0.,1.,0.));
#2990=DIRECTION('',(1.,0.,0.));
#3000=AXIS2_PLACEMENT_3D('',#2970,#2980,#2990);
#3010=PLANE('',#3000);
#3020=ORIENTED_EDGE('',*,*,#970,.F.);
#3030=ORIENTED_EDGE('',*,*,#1980,.F.);
#3040=ORIENTED_EDGE('',*,*,#2400,.T.);
#3050=ORIENTED_EDGE('',*,*,#520,.T.);
#3060=EDGE_LOOP('',(#3050,#3040,#3030,#3020));
#3070=FACE_OUTER_BOUND('',#3060,.T.);
#3080=ADVANCED_FACE('',(#3070),#3010,.T.);
#3090=CARTESIAN_POINT('',(25.,0.,20.));
#3100=DIRECTION('',(0.,-1.,0.));
#3110=DIRECTION('',(-1.,0.,0.));
#3120=AXIS2_PLACEMENT_3D('',#3090,#3100,#3110);
#3130=CYLINDRICAL_SURFACE('',#3120,3.4);
#3140=CARTESIAN_POINT('',(28.4,0.,20.));
#3150=DIRECTION('',(0.,-1.,0.));
#3160=VECTOR('',#3150,1.);
#3170=LINE('',#3140,#3160);
#3180=CARTESIAN_POINT('',(28.4,5.65359,20.));
#3190=VERTEX_POINT('',#3180);
#3200=CARTESIAN_POINT('',(28.4,0.346410161513776,20.));
#3210=VERTEX_POINT('',#3200);
#3220=EDGE_CURVE('',#3190,#3210,#3170,.T.);
#3230=ORIENTED_EDGE('',*,*,#3220,.T.);
#3240=CARTESIAN_POINT('',(25.,5.65359,20.));
#3250=DIRECTION('',(0.,-1.,0.));
#3260=DIRECTION('',(-1.,0.,0.));
#3270=AXIS2_PLACEMENT_3D('',#3240,#3250,#3260);
#3280=CIRCLE('',#3270,3.4);
#3290=CARTESIAN_POINT('',(21.6,5.65359,20.));
#3300=VERTEX_POINT('',#3290);
#3310=EDGE_CURVE('',#3190,#3300,#3280,.T.);
#3320=ORIENTED_EDGE('',*,*,#3310,.F.);
#3330=CARTESIAN_POINT('',(21.6,0.,20.));
#3340=DIRECTION('',(0.,-1.,0.));
#3350=VECTOR('',#3340,1.);
#3360=LINE('',#3330,#3350);
#3370=CARTESIAN_POINT('',(21.6,0.346410161513776,20.));
#3380=VERTEX_POINT('',#3370);
#3390=EDGE_CURVE('',#3300,#3380,#3360,.T.);
#3400=ORIENTED_EDGE('',*,*,#3390,.F.);
#3410=CARTESIAN_POINT('',(25.,0.346410161513776,20.));
#3420=DIRECTION('',(0.,-1.,0.));
#3430=DIRECTION('',(-1.,0.,0.));
#3440=AXIS2_PLACEMENT_3D('',#3410,#3420,#3430);
#3450=CIRCLE('',#3440,3.4);
#3460=EDGE_CURVE('',#3210,#3380,#3450,.T.);
#3470=ORIENTED_EDGE('',*,*,#3460,.T.);
#3480=EDGE_LOOP('',(#3470,#3400,#3320,#3230));
#3490=FACE_OUTER_BOUND('',#3480,.T.);
#3500=ADVANCED_FACE('M8x1.25_141045',(#3490),#3130,.F.);
#3510=COLOUR_RGB('',1.,0.,0.);
#3520=FILL_AREA_STYLE_COLOUR('',#3510);
#3530=FILL_AREA_STYLE('',(#3520));
#3540=SURFACE_STYLE_FILL_AREA(#3530);
#3550=SURFACE_SIDE_STYLE('',(#3540));
#3560=SURFACE_STYLE_USAGE(.BOTH.,#3550);
#3570=PRESENTATION_STYLE_ASSIGNMENT((#3560));
#3580=CARTESIAN_POINT('',(25.,0.346410161513776,20.));
#3590=DIRECTION('',(0.,-1.,0.));
#3600=DIRECTION('',(-1.,0.,0.));
#3610=AXIS2_PLACEMENT_3D('',#3580,#3590,#3600);
#3620=CONICAL_SURFACE('',#3610,3.4,1.0471975511966);
#3630=CARTESIAN_POINT('',(21.6,0.346410161513776,20.));
#3640=DIRECTION('',(-0.866025403784439,-0.499999999999999,0.));
#3650=VECTOR('',#3640,3.92598183048945);
#3660=LINE('',#3630,#3650);
#3670=EDGE_CURVE('',#3380,#2640,#3660,.T.);
#3680=ORIENTED_EDGE('',*,*,#3670,.F.);
#3690=ORIENTED_EDGE('',*,*,#2690,.T.);
#3700=CARTESIAN_POINT('',(28.4,0.346410161513776,20.));
#3710=DIRECTION('',(0.866025403784439,-0.499999999999999,0.));
#3720=VECTOR('',#3710,3.92598183048945);
#3730=LINE('',#3700,#3720);
#3740=EDGE_CURVE('',#3210,#2660,#3730,.T.);
#3750=ORIENTED_EDGE('',*,*,#3740,.T.);
#3760=ORIENTED_EDGE('',*,*,#3460,.F.);
#3770=EDGE_LOOP('',(#3760,#3750,#3690,#3680));
#3780=FACE_OUTER_BOUND('',#3770,.T.);
#3790=ADVANCED_FACE('',(#3780),#3620,.F.);
#3800=CARTESIAN_POINT('',(25.,5.65359,20.));
#3810=DIRECTION('',(0.,1.,0.));
#3820=DIRECTION('',(1.,0.,0.));
#3830=AXIS2_PLACEMENT_3D('',#3800,#3810,#3820);
#3840=CONICAL_SURFACE('',#3830,3.4,1.0471975511966);
#3850=CARTESIAN_POINT('',(28.4,5.65359,20.));
#3860=DIRECTION('',(0.866025403784438,0.500000000000001,0.));
#3870=VECTOR('',#3860,3.92598183048946);
#3880=LINE('',#3850,#3870);
#3890=EDGE_CURVE('',#3190,#1160,#3880,.T.);
#3900=ORIENTED_EDGE('',*,*,#3890,.F.);
#3910=ORIENTED_EDGE('',*,*,#1190,.F.);
#3920=CARTESIAN_POINT('',(21.6,5.65359,20.));
#3930=DIRECTION('',(-0.866025403784438,0.500000000000001,0.));
#3940=VECTOR('',#3930,3.92598183048946);
#3950=LINE('',#3920,#3940);
#3960=EDGE_CURVE('',#3300,#1140,#3950,.T.);
#3970=ORIENTED_EDGE('',*,*,#3960,.T.);
#3980=ORIENTED_EDGE('',*,*,#3310,.T.);
#3990=EDGE_LOOP('',(#3980,#3970,#3910,#3900));
#4000=FACE_OUTER_BOUND('',#3990,.T.);
#4010=ADVANCED_FACE('',(#4000),#3840,.F.);
#4020=CARTESIAN_POINT('',(25.,0.346410161513776,20.));
#4030=DIRECTION('',(0.,-1.,0.));
#4040=DIRECTION('',(-1.,0.,0.));
#4050=AXIS2_PLACEMENT_3D('',#4020,#4030,#4040);
#4060=CONICAL_SURFACE('',#4050,3.4,1.0471975511966);
#4070=EDGE_CURVE('',#3380,#3210,#3450,.T.);
#4080=ORIENTED_EDGE('',*,*,#4070,.F.);
#4090=ORIENTED_EDGE('',*,*,#3740,.F.);
#4100=ORIENTED_EDGE('',*,*,#2670,.T.);
#4110=ORIENTED_EDGE('',*,*,#3670,.T.);
#4120=EDGE_LOOP('',(#4110,#4100,#4090,#4080));
#4130=FACE_OUTER_BOUND('',#4120,.T.);
#4140=ADVANCED_FACE('',(#4130),#4060,.F.);
#4150=CARTESIAN_POINT('',(25.,0.,20.));
#4160=DIRECTION('',(0.,-1.,0.));
#4170=DIRECTION('',(-1.,0.,0.));
#4180=AXIS2_PLACEMENT_3D('',#4150,#4160,#4170);
#4190=CYLINDRICAL_SURFACE('',#4180,3.4);
#4200=EDGE_CURVE('',#3300,#3190,#3280,.T.);
#4210=ORIENTED_EDGE('',*,*,#4200,.F.);
#4220=ORIENTED_EDGE('',*,*,#3220,.F.);
#4230=ORIENTED_EDGE('',*,*,#4070,.T.);
#4240=ORIENTED_EDGE('',*,*,#3390,.T.);
#4250=EDGE_LOOP('',(#4240,#4230,#4220,#4210));
#4260=FACE_OUTER_BOUND('',#4250,.T.);
#4270=ADVANCED_FACE('',(#4260),#4190,.F.);
#4280=COLOUR_RGB('',1.,0.,0.);
#4290=FILL_AREA_STYLE_COLOUR('',#4280);
#4300=FILL_AREA_STYLE('',(#4290));
#4310=SURFACE_STYLE_FILL_AREA(#4300);
#4320=SURFACE_SIDE_STYLE('',(#4310));
#4330=SURFACE_STYLE_USAGE(.BOTH.,#4320);
#4340=PRESENTATION_STYLE_ASSIGNMENT((#4330));
#4350=CARTESIAN_POINT('',(25.,5.65359,20.));
#4360=DIRECTION('',(0.,1.,0.));
#4370=DIRECTION('',(1.,0.,0.));
#4380=AXIS2_PLACEMENT_3D('',#4350,#4360,#4370);
#4390=CONICAL_SURFACE('',#4380,3.4,1.0471975511966);
#4400=ORIENTED_EDGE('',*,*,#4200,.T.);
#4410=ORIENTED_EDGE('',*,*,#3960,.F.);
#4420=ORIENTED_EDGE('',*,*,#1170,.F.);
#4430=ORIENTED_EDGE('',*,*,#3890,.T.);
#4440=EDGE_LOOP('',(#4430,#4420,#4410,#4400));
#4450=FACE_OUTER_BOUND('',#4440,.T.);
#4460=ADVANCED_FACE('',(#4450),#4390,.F.);
#4470=CLOSED_SHELL('',(#2520,#2840,#2960,#3080,#3500,#3790,#4010,#4140,
#4270,#4460,#2260,#560,#1020,#1410,#1730,#1860));
#4480=MANIFOLD_SOLID_BREP('',#4470);
#4490=CARTESIAN_POINT('',(0.,0.,0.));
#4500=DIRECTION('',(0.,0.,1.));
#4510=DIRECTION('',(1.,0.,0.));
#4520=AXIS2_PLACEMENT_3D('',#4490,#4500,#4510);
#4530=APPLICATION_CONTEXT(' ');
#4540=APPLICATION_PROTOCOL_DEFINITION(' ','automotive_design',1998,#4530
);
#4550=PRODUCT_CONTEXT('',#4530,'mechanical');
#4560=PRODUCT_DEFINITION_CONTEXT('part definition',#4530,'design');
#4570=PRODUCT('Haltewinkel-MMS-55_50x50x50x6-M8_55.0205.2_PX176170',
'Haltewinkel-MMS-55_50x50x50x6-M8_55.0205.2_PX176170','',(#4550));
#4580=PRODUCT_RELATED_PRODUCT_CATEGORY('part',' ',(#4570));
#4590=PRODUCT_DEFINITION_FORMATION_WITH_SPECIFIED_SOURCE('','',#4570,
.BOUGHT.);
#4600=PRODUCT_DEFINITION('',' ',#4590,#4560);
#4610=PRODUCT_DEFINITION_SHAPE('','',#4600);
#4620=DIMENSIONAL_EXPONENTS(1.,0.,0.,0.,0.,0.,0.);
#4630=DIMENSIONAL_EXPONENTS(0.,0.,0.,0.,0.,0.,0.);
#4640=DIMENSIONAL_EXPONENTS(0.,0.,0.,0.,0.,0.,0.);
#4650=(LENGTH_UNIT() NAMED_UNIT(*) SI_UNIT(.MILLI.,.METRE.));
#4660=(NAMED_UNIT(*) PLANE_ANGLE_UNIT() SI_UNIT($,.RADIAN.));
#4670=(NAMED_UNIT(*) SI_UNIT($,.STERADIAN.) SOLID_ANGLE_UNIT());
#4680=(GEOMETRIC_REPRESENTATION_CONTEXT(3) 
GLOBAL_UNCERTAINTY_ASSIGNED_CONTEXT((#4690)) 
GLOBAL_UNIT_ASSIGNED_CONTEXT((#4650,#4660,#4670)) REPRESENTATION_CONTEXT
('',''));
#4690=UNCERTAINTY_MEASURE_WITH_UNIT(LENGTH_MEASURE(1.E-6),#4650,
'distance_accuracy_value','maximum gap value');
#4700=ADVANCED_BREP_SHAPE_REPRESENTATION('',(#4520,#4480),#4680);
#4710=SHAPE_DEFINITION_REPRESENTATION(#4610,#4700);
#4720=COLOUR_RGB('',0.690196096897125,0.886274576187134,1.);
#4730=FILL_AREA_STYLE_COLOUR('',#4720);
#4740=FILL_AREA_STYLE('',(#4730));
#4750=SURFACE_STYLE_FILL_AREA(#4740);
#4760=SURFACE_SIDE_STYLE('',(#4750));
#4770=SURFACE_STYLE_USAGE(.BOTH.,#4760);
#4780=PRESENTATION_STYLE_ASSIGNMENT((#4770));
#4790=STYLED_ITEM('',(#4780),#4480);
#4800=OVER_RIDING_STYLED_ITEM('',(#3570),#3500,#4790);
#4810=OVER_RIDING_STYLED_ITEM('',(#4340),#4270,#4790);
#4820=DRAUGHTING_MODEL('',(#4790,#4800,#4810),#4680);
#4830=CARTESIAN_POINT('',(0.,0.,76.));
#4840=DIRECTION('',(0.,0.,1.));
#4850=DIRECTION('',(1.,0.,0.));
#4860=AXIS2_PLACEMENT_3D('',#4830,#4840,#4850);
#4870=ITEM_DEFINED_TRANSFORMATION(
'Haltewinkel-MMS-55_50x50x50x6-M8_55.0205.2_PX176170','',#4520,#4860);
#4880=APPLICATION_CONTEXT(' ');
#4890=APPLICATION_PROTOCOL_DEFINITION(' ','automotive_design',1998,#4880
);
#4900=PRODUCT_CONTEXT('',#4880,'mechanical');
#4910=PRODUCT_DEFINITION_CONTEXT('part definition',#4880,'design');
#4920=PRODUCT('Haltewinkel-MMS-55_50x50x50x6-M8_55.0205.2_PX176170',
'Haltewinkel-MMS-55_50x50x50x6-M8_55.0205.2_PX176170','',(#4900));
#4930=PRODUCT_RELATED_PRODUCT_CATEGORY('part',' ',(#4920));
#4940=PRODUCT_DEFINITION_FORMATION_WITH_SPECIFIED_SOURCE('','',#4920,
.BOUGHT.);
#4950=PRODUCT_DEFINITION('',' ',#4940,#4910);
#4960=PRODUCT_DEFINITION_SHAPE('','',#4950);
#4970=DIMENSIONAL_EXPONENTS(1.,0.,0.,0.,0.,0.,0.);
#4980=DIMENSIONAL_EXPONENTS(0.,0.,0.,0.,0.,0.,0.);
#4990=DIMENSIONAL_EXPONENTS(0.,0.,0.,0.,0.,0.,0.);
#5000=(LENGTH_UNIT() NAMED_UNIT(*) SI_UNIT(.MILLI.,.METRE.));
#5010=(NAMED_UNIT(*) PLANE_ANGLE_UNIT() SI_UNIT($,.RADIAN.));
#5020=(NAMED_UNIT(*) SI_UNIT($,.STERADIAN.) SOLID_ANGLE_UNIT());
#5030=(GEOMETRIC_REPRESENTATION_CONTEXT(3) 
GLOBAL_UNCERTAINTY_ASSIGNED_CONTEXT((#5040)) 
GLOBAL_UNIT_ASSIGNED_CONTEXT((#5000,#5010,#5020)) REPRESENTATION_CONTEXT
('',''));
#5040=UNCERTAINTY_MEASURE_WITH_UNIT(LENGTH_MEASURE(1.E-6),#5000,
'distance_accuracy_value','maximum gap value');
#5050=SHAPE_REPRESENTATION('',(#4520,#4860),#5030);
#5060=SHAPE_DEFINITION_REPRESENTATION(#4960,#5050);
#5070=(REPRESENTATION_RELATIONSHIP('','',#4700,#5050) 
REPRESENTATION_RELATIONSHIP_WITH_TRANSFORMATION(#4870) 
SHAPE_REPRESENTATION_RELATIONSHIP());
#5080=NEXT_ASSEMBLY_USAGE_OCCURRENCE('1','',
'Haltewinkel-MMS-55_50x50x50x6-M8_55.0205.2_PX176170',#4950,#4600,'');
#5090=PRODUCT_DEFINITION_SHAPE('','',#5080);
#5100=CONTEXT_DEPENDENT_SHAPE_REPRESENTATION(#5070,#5090);
ENDSEC;
END-ISO-10303-21;
