ISO-10303-21;
HEADER;
FILE_DESCRIPTION(('Creo Elements/Direct Modeling STEP Export'),'2;1');
FILE_NAME(
'//KR-CAD2/PhoenixTemp/karl.letzgus/Konvertierung/55.0235.2_Sockelplatte
-MMS-55_100x50x10-(P-50-25).stp','2022-03-21T 8:07:42',(''),(''),
'PTC Creo Elements/Direct Modeling STEP processor for AP214 (Solid Model
)',
'PTC Creo Elements/Direct Modeling 19.0C  15-Aug-2015 (C) Parametric Tec
hnology GmbH','');
FILE_SCHEMA(('AUTOMOTIVE_DESIGN { 1 0 10303 214 1 1 1 1 }'));
ENDSEC;
DATA;
#10=CARTESIAN_POINT('',(0.,35.,3.535));
#20=DIRECTION('',(0.,0.,-1.));
#30=DIRECTION('',(-1.,0.,0.));
#40=AXIS2_PLACEMENT_3D('',#10,#20,#30);
#50=CYLINDRICAL_SURFACE('',#40,4.5);
#60=CARTESIAN_POINT('',(-4.5,35.,3.535));
#70=DIRECTION('',(0.,0.,-1.));
#80=VECTOR('',#70,1.);
#90=LINE('',#60,#80);
#100=CARTESIAN_POINT('',(-4.5,35.,4.5));
#110=VERTEX_POINT('',#100);
#120=CARTESIAN_POINT('',(-4.5,35.,0.));
#130=VERTEX_POINT('',#120);
#140=EDGE_CURVE('',#110,#130,#90,.T.);
#150=ORIENTED_EDGE('',*,*,#140,.F.);
#160=CARTESIAN_POINT('',(0.,35.,0.));
#170=DIRECTION('',(0.,0.,-1.));
#180=DIRECTION('',(-1.,0.,0.));
#190=AXIS2_PLACEMENT_3D('',#160,#170,#180);
#200=CIRCLE('',#190,4.5);
#210=CARTESIAN_POINT('',(4.5,35.,0.));
#220=VERTEX_POINT('',#210);
#230=EDGE_CURVE('',#220,#130,#200,.T.);
#240=ORIENTED_EDGE('',*,*,#230,.T.);
#250=CARTESIAN_POINT('',(4.5,35.,3.535));
#260=DIRECTION('',(0.,0.,-1.));
#270=VECTOR('',#260,1.);
#280=LINE('',#250,#270);
#290=CARTESIAN_POINT('',(4.5,35.,4.5));
#300=VERTEX_POINT('',#290);
#310=EDGE_CURVE('',#300,#220,#280,.T.);
#320=ORIENTED_EDGE('',*,*,#310,.T.);
#330=CARTESIAN_POINT('',(0.,35.,4.5));
#340=DIRECTION('',(0.,0.,-1.));
#350=DIRECTION('',(-1.,0.,0.));
#360=AXIS2_PLACEMENT_3D('',#330,#340,#350);
#370=CIRCLE('',#360,4.5);
#380=EDGE_CURVE('',#300,#110,#370,.T.);
#390=ORIENTED_EDGE('',*,*,#380,.F.);
#400=EDGE_LOOP('',(#390,#320,#240,#150));
#410=FACE_OUTER_BOUND('',#400,.T.);
#420=ADVANCED_FACE('',(#410),#50,.F.);
#430=CARTESIAN_POINT('',(-1.64925798162276E-32,6.72775466711792E-17,
3.535));
#440=DIRECTION('',(0.,0.,-1.));
#450=DIRECTION('',(-1.,0.,0.));
#460=AXIS2_PLACEMENT_3D('',#430,#440,#450);
#470=CYLINDRICAL_SURFACE('',#460,4.5);
#480=CARTESIAN_POINT('',(-4.5,6.72775466711792E-17,3.535));
#490=DIRECTION('',(0.,0.,-1.));
#500=VECTOR('',#490,1.);
#510=LINE('',#480,#500);
#520=CARTESIAN_POINT('',(-4.5,6.72775466711792E-17,4.5));
#530=VERTEX_POINT('',#520);
#540=CARTESIAN_POINT('',(-4.5,6.72775466711792E-17,0.));
#550=VERTEX_POINT('',#540);
#560=EDGE_CURVE('',#530,#550,#510,.T.);
#570=ORIENTED_EDGE('',*,*,#560,.F.);
#580=CARTESIAN_POINT('',(-1.64925798162276E-32,6.72775466711792E-17,0.))
;
#590=DIRECTION('',(0.,0.,-1.));
#600=DIRECTION('',(-1.,0.,0.));
#610=AXIS2_PLACEMENT_3D('',#580,#590,#600);
#620=CIRCLE('',#610,4.5);
#630=CARTESIAN_POINT('',(4.5,6.18368606287488E-16,0.));
#640=VERTEX_POINT('',#630);
#650=EDGE_CURVE('',#640,#550,#620,.T.);
#660=ORIENTED_EDGE('',*,*,#650,.T.);
#670=CARTESIAN_POINT('',(4.5,6.18368606287488E-16,3.535));
#680=DIRECTION('',(0.,0.,-1.));
#690=VECTOR('',#680,1.);
#700=LINE('',#670,#690);
#710=CARTESIAN_POINT('',(4.5,6.18368606287488E-16,4.5));
#720=VERTEX_POINT('',#710);
#730=EDGE_CURVE('',#720,#640,#700,.T.);
#740=ORIENTED_EDGE('',*,*,#730,.T.);
#750=CARTESIAN_POINT('',(-1.64925798162276E-32,6.72775466711792E-17,4.5)
);
#760=DIRECTION('',(0.,0.,-1.));
#770=DIRECTION('',(-1.,0.,0.));
#780=AXIS2_PLACEMENT_3D('',#750,#760,#770);
#790=CIRCLE('',#780,4.5);
#800=EDGE_CURVE('',#720,#530,#790,.T.);
#810=ORIENTED_EDGE('',*,*,#800,.F.);
#820=EDGE_LOOP('',(#810,#740,#660,#570));
#830=FACE_OUTER_BOUND('',#820,.T.);
#840=ADVANCED_FACE('',(#830),#470,.F.);
#850=CARTESIAN_POINT('',(40.,17.5,-0.100000000000001));
#860=DIRECTION('',(0.,0.,1.));
#870=DIRECTION('',(1.,0.,0.));
#880=AXIS2_PLACEMENT_3D('',#850,#860,#870);
#890=CYLINDRICAL_SURFACE('',#880,4.5);
#900=CARTESIAN_POINT('',(35.5,17.5,-0.100000000000001));
#910=DIRECTION('',(0.,0.,1.));
#920=VECTOR('',#910,1.);
#930=LINE('',#900,#920);
#940=CARTESIAN_POINT('',(35.5,17.5,-5.55111512312578E-16));
#950=VERTEX_POINT('',#940);
#960=CARTESIAN_POINT('',(35.5,17.5,10.));
#970=VERTEX_POINT('',#960);
#980=EDGE_CURVE('',#950,#970,#930,.T.);
#990=ORIENTED_EDGE('',*,*,#980,.F.);
#1000=CARTESIAN_POINT('',(40.,17.5,10.));
#1010=DIRECTION('',(0.,0.,-1.));
#1020=DIRECTION('',(1.,0.,0.));
#1030=AXIS2_PLACEMENT_3D('',#1000,#1010,#1020);
#1040=CIRCLE('',#1030,4.5);
#1050=CARTESIAN_POINT('',(44.5,17.5,10.));
#1060=VERTEX_POINT('',#1050);
#1070=EDGE_CURVE('',#970,#1060,#1040,.T.);
#1080=ORIENTED_EDGE('',*,*,#1070,.F.);
#1090=CARTESIAN_POINT('',(44.5,17.5,-0.100000000000001));
#1100=DIRECTION('',(0.,0.,1.));
#1110=VECTOR('',#1100,1.);
#1120=LINE('',#1090,#1110);
#1130=CARTESIAN_POINT('',(44.5,17.5,0.));
#1140=VERTEX_POINT('',#1130);
#1150=EDGE_CURVE('',#1140,#1060,#1120,.T.);
#1160=ORIENTED_EDGE('',*,*,#1150,.T.);
#1170=CARTESIAN_POINT('',(40.,17.5,0.));
#1180=DIRECTION('',(0.,0.,1.));
#1190=DIRECTION('',(1.,0.,0.));
#1200=AXIS2_PLACEMENT_3D('',#1170,#1180,#1190);
#1210=CIRCLE('',#1200,4.5);
#1220=EDGE_CURVE('',#1140,#950,#1210,.T.);
#1230=ORIENTED_EDGE('',*,*,#1220,.F.);
#1240=EDGE_LOOP('',(#1230,#1160,#1080,#990));
#1250=FACE_OUTER_BOUND('',#1240,.T.);
#1260=ADVANCED_FACE('',(#1250),#890,.F.);
#1270=CARTESIAN_POINT('',(-40.,17.5,-0.100000000000003));
#1280=DIRECTION('',(0.,0.,1.));
#1290=DIRECTION('',(1.,0.,0.));
#1300=AXIS2_PLACEMENT_3D('',#1270,#1280,#1290);
#1310=CYLINDRICAL_SURFACE('',#1300,4.5);
#1320=CARTESIAN_POINT('',(-35.5,17.5,-0.100000000000003));
#1330=DIRECTION('',(0.,0.,1.));
#1340=VECTOR('',#1330,1.);
#1350=LINE('',#1320,#1340);
#1360=CARTESIAN_POINT('',(-35.5,17.5,-4.44089209850063E-15));
#1370=VERTEX_POINT('',#1360);
#1380=CARTESIAN_POINT('',(-35.5,17.5,10.));
#1390=VERTEX_POINT('',#1380);
#1400=EDGE_CURVE('',#1370,#1390,#1350,.T.);
#1410=ORIENTED_EDGE('',*,*,#1400,.F.);
#1420=CARTESIAN_POINT('',(-40.,17.5,10.));
#1430=DIRECTION('',(0.,0.,-1.));
#1440=DIRECTION('',(1.,0.,0.));
#1450=AXIS2_PLACEMENT_3D('',#1420,#1430,#1440);
#1460=CIRCLE('',#1450,4.5);
#1470=CARTESIAN_POINT('',(-44.5,17.5,10.));
#1480=VERTEX_POINT('',#1470);
#1490=EDGE_CURVE('',#1390,#1480,#1460,.T.);
#1500=ORIENTED_EDGE('',*,*,#1490,.F.);
#1510=CARTESIAN_POINT('',(-44.5,17.5,-0.100000000000003));
#1520=DIRECTION('',(0.,0.,1.));
#1530=VECTOR('',#1520,1.);
#1540=LINE('',#1510,#1530);
#1550=CARTESIAN_POINT('',(-44.5,17.5,0.));
#1560=VERTEX_POINT('',#1550);
#1570=EDGE_CURVE('',#1560,#1480,#1540,.T.);
#1580=ORIENTED_EDGE('',*,*,#1570,.T.);
#1590=CARTESIAN_POINT('',(-40.,17.5,0.));
#1600=DIRECTION('',(0.,0.,1.));
#1610=DIRECTION('',(1.,0.,0.));
#1620=AXIS2_PLACEMENT_3D('',#1590,#1600,#1610);
#1630=CIRCLE('',#1620,4.5);
#1640=EDGE_CURVE('',#1560,#1370,#1630,.T.);
#1650=ORIENTED_EDGE('',*,*,#1640,.F.);
#1660=EDGE_LOOP('',(#1650,#1580,#1500,#1410));
#1670=FACE_OUTER_BOUND('',#1660,.T.);
#1680=ADVANCED_FACE('',(#1670),#1310,.F.);
#1690=CARTESIAN_POINT('',(-7.5,42.575,10.065));
#1700=DIRECTION('',(-1.,0.,0.));
#1710=DIRECTION('',(0.,1.,0.));
#1720=AXIS2_PLACEMENT_3D('',#1690,#1700,#1710);
#1730=PLANE('',#1720);
#1740=CARTESIAN_POINT('',(-7.5,0.,10.));
#1750=DIRECTION('',(0.,1.,0.));
#1760=VECTOR('',#1750,1.);
#1770=LINE('',#1740,#1760);
#1780=CARTESIAN_POINT('',(-7.5,35.,10.));
#1790=VERTEX_POINT('',#1780);
#1800=CARTESIAN_POINT('',(-7.5,42.5,10.));
#1810=VERTEX_POINT('',#1800);
#1820=EDGE_CURVE('',#1790,#1810,#1770,.T.);
#1830=ORIENTED_EDGE('',*,*,#1820,.F.);
#1840=CARTESIAN_POINT('',(-7.5,42.5,0.));
#1850=DIRECTION('',(0.,0.,-1.));
#1860=VECTOR('',#1850,1.);
#1870=LINE('',#1840,#1860);
#1880=CARTESIAN_POINT('',(-7.5,42.5,4.5));
#1890=VERTEX_POINT('',#1880);
#1900=EDGE_CURVE('',#1810,#1890,#1870,.T.);
#1910=ORIENTED_EDGE('',*,*,#1900,.F.);
#1920=CARTESIAN_POINT('',(-7.5,0.,4.5));
#1930=DIRECTION('',(0.,1.,0.));
#1940=VECTOR('',#1930,1.);
#1950=LINE('',#1920,#1940);
#1960=CARTESIAN_POINT('',(-7.5,35.,4.5));
#1970=VERTEX_POINT('',#1960);
#1980=EDGE_CURVE('',#1970,#1890,#1950,.T.);
#1990=ORIENTED_EDGE('',*,*,#1980,.T.);
#2000=CARTESIAN_POINT('',(-7.5,35.,3.5));
#2010=DIRECTION('',(0.,0.,1.));
#2020=VECTOR('',#2010,1.);
#2030=LINE('',#2000,#2020);
#2040=EDGE_CURVE('',#1970,#1790,#2030,.T.);
#2050=ORIENTED_EDGE('',*,*,#2040,.F.);
#2060=EDGE_LOOP('',(#2050,#1990,#1910,#1830));
#2070=FACE_OUTER_BOUND('',#2060,.T.);
#2080=ADVANCED_FACE('',(#2070),#1730,.F.);
#2090=CARTESIAN_POINT('',(7.5,42.575,3.435));
#2100=DIRECTION('',(1.,0.,0.));
#2110=DIRECTION('',(0.,-1.,0.));
#2120=AXIS2_PLACEMENT_3D('',#2090,#2100,#2110);
#2130=PLANE('',#2120);
#2140=CARTESIAN_POINT('',(7.5,0.,10.));
#2150=DIRECTION('',(0.,-1.,0.));
#2160=VECTOR('',#2150,1.);
#2170=LINE('',#2140,#2160);
#2180=CARTESIAN_POINT('',(7.5,42.5,10.));
#2190=VERTEX_POINT('',#2180);
#2200=CARTESIAN_POINT('',(7.5,35.,10.));
#2210=VERTEX_POINT('',#2200);
#2220=EDGE_CURVE('',#2190,#2210,#2170,.T.);
#2230=ORIENTED_EDGE('',*,*,#2220,.F.);
#2240=CARTESIAN_POINT('',(7.5,35.,3.5));
#2250=DIRECTION('',(0.,0.,1.));
#2260=VECTOR('',#2250,1.);
#2270=LINE('',#2240,#2260);
#2280=CARTESIAN_POINT('',(7.5,35.,4.5));
#2290=VERTEX_POINT('',#2280);
#2300=EDGE_CURVE('',#2290,#2210,#2270,.T.);
#2310=ORIENTED_EDGE('',*,*,#2300,.T.);
#2320=CARTESIAN_POINT('',(7.5,0.,4.5));
#2330=DIRECTION('',(0.,-1.,0.));
#2340=VECTOR('',#2330,1.);
#2350=LINE('',#2320,#2340);
#2360=CARTESIAN_POINT('',(7.5,42.5,4.5));
#2370=VERTEX_POINT('',#2360);
#2380=EDGE_CURVE('',#2370,#2290,#2350,.T.);
#2390=ORIENTED_EDGE('',*,*,#2380,.T.);
#2400=CARTESIAN_POINT('',(7.5,42.5,0.));
#2410=DIRECTION('',(0.,0.,1.));
#2420=VECTOR('',#2410,1.);
#2430=LINE('',#2400,#2420);
#2440=EDGE_CURVE('',#2370,#2190,#2430,.T.);
#2450=ORIENTED_EDGE('',*,*,#2440,.F.);
#2460=EDGE_LOOP('',(#2450,#2390,#2310,#2230));
#2470=FACE_OUTER_BOUND('',#2460,.T.);
#2480=ADVANCED_FACE('',(#2470),#2130,.F.);
#2490=CARTESIAN_POINT('',(-1.73472347597681E-17,35.,3.435));
#2500=DIRECTION('',(0.,0.,1.));
#2510=DIRECTION('',(1.,0.,0.));
#2520=AXIS2_PLACEMENT_3D('',#2490,#2500,#2510);
#2530=CYLINDRICAL_SURFACE('',#2520,7.5);
#2540=ORIENTED_EDGE('',*,*,#2040,.T.);
#2550=CARTESIAN_POINT('',(-1.73472347597681E-17,35.,4.5));
#2560=DIRECTION('',(0.,0.,1.));
#2570=DIRECTION('',(1.,0.,0.));
#2580=AXIS2_PLACEMENT_3D('',#2550,#2560,#2570);
#2590=CIRCLE('',#2580,7.5);
#2600=EDGE_CURVE('',#1970,#2290,#2590,.T.);
#2610=ORIENTED_EDGE('',*,*,#2600,.F.);
#2620=ORIENTED_EDGE('',*,*,#2300,.F.);
#2630=CARTESIAN_POINT('',(-1.73472347597681E-17,35.,10.));
#2640=DIRECTION('',(0.,0.,-1.));
#2650=DIRECTION('',(1.,0.,0.));
#2660=AXIS2_PLACEMENT_3D('',#2630,#2640,#2650);
#2670=CIRCLE('',#2660,7.5);
#2680=EDGE_CURVE('',#2210,#1790,#2670,.T.);
#2690=ORIENTED_EDGE('',*,*,#2680,.F.);
#2700=EDGE_LOOP('',(#2690,#2620,#2610,#2540));
#2710=FACE_OUTER_BOUND('',#2700,.T.);
#2720=ADVANCED_FACE('',(#2710),#2530,.F.);
#2730=CARTESIAN_POINT('',(50.,-8.,-0.0999999999999996));
#2740=DIRECTION('',(-1.,0.,0.));
#2750=DIRECTION('',(0.,1.,0.));
#2760=AXIS2_PLACEMENT_3D('',#2730,#2740,#2750);
#2770=PLANE('',#2760);
#2780=CARTESIAN_POINT('',(50.,-7.5,0.));
#2790=DIRECTION('',(0.,0.,-1.));
#2800=VECTOR('',#2790,1.);
#2810=LINE('',#2780,#2800);
#2820=CARTESIAN_POINT('',(50.,-7.5,10.));
#2830=VERTEX_POINT('',#2820);
#2840=CARTESIAN_POINT('',(50.,-7.5,0.));
#2850=VERTEX_POINT('',#2840);
#2860=EDGE_CURVE('',#2830,#2850,#2810,.T.);
#2870=ORIENTED_EDGE('',*,*,#2860,.T.);
#2880=CARTESIAN_POINT('',(50.,0.,10.));
#2890=DIRECTION('',(0.,1.,0.));
#2900=VECTOR('',#2890,1.);
#2910=LINE('',#2880,#2900);
#2920=CARTESIAN_POINT('',(50.,42.5,10.));
#2930=VERTEX_POINT('',#2920);
#2940=EDGE_CURVE('',#2830,#2930,#2910,.T.);
#2950=ORIENTED_EDGE('',*,*,#2940,.F.);
#2960=CARTESIAN_POINT('',(50.,42.5,0.));
#2970=DIRECTION('',(0.,0.,-1.));
#2980=VECTOR('',#2970,1.);
#2990=LINE('',#2960,#2980);
#3000=CARTESIAN_POINT('',(50.,42.5,0.));
#3010=VERTEX_POINT('',#3000);
#3020=EDGE_CURVE('',#2930,#3010,#2990,.T.);
#3030=ORIENTED_EDGE('',*,*,#3020,.F.);
#3040=CARTESIAN_POINT('',(50.,0.,0.));
#3050=DIRECTION('',(0.,-1.,0.));
#3060=VECTOR('',#3050,1.);
#3070=LINE('',#3040,#3060);
#3080=EDGE_CURVE('',#3010,#2850,#3070,.T.);
#3090=ORIENTED_EDGE('',*,*,#3080,.F.);
#3100=EDGE_LOOP('',(#3090,#3030,#2950,#2870));
#3110=FACE_OUTER_BOUND('',#3100,.T.);
#3120=ADVANCED_FACE('',(#3110),#2770,.F.);
#3130=CARTESIAN_POINT('',(-50.5,-8.,10.));
#3140=DIRECTION('',(0.,0.,1.));
#3150=DIRECTION('',(1.,0.,0.));
#3160=AXIS2_PLACEMENT_3D('',#3130,#3140,#3150);
#3170=PLANE('',#3160);
#3180=CARTESIAN_POINT('',(0.,42.5,10.));
#3190=DIRECTION('',(-1.,0.,0.));
#3200=VECTOR('',#3190,1.);
#3210=LINE('',#3180,#3200);
#3220=EDGE_CURVE('',#2930,#2190,#3210,.T.);
#3230=ORIENTED_EDGE('',*,*,#3220,.T.);
#3240=ORIENTED_EDGE('',*,*,#2940,.T.);
#3250=CARTESIAN_POINT('',(0.,-7.5,10.));
#3260=DIRECTION('',(1.,0.,0.));
#3270=VECTOR('',#3260,1.);
#3280=LINE('',#3250,#3270);
#3290=CARTESIAN_POINT('',(7.5,-7.5,10.));
#3300=VERTEX_POINT('',#3290);
#3310=EDGE_CURVE('',#3300,#2830,#3280,.T.);
#3320=ORIENTED_EDGE('',*,*,#3310,.T.);
#3330=CARTESIAN_POINT('',(7.5,0.,10.));
#3340=DIRECTION('',(0.,-1.,0.));
#3350=VECTOR('',#3340,1.);
#3360=LINE('',#3330,#3350);
#3370=CARTESIAN_POINT('',(7.5,0.,10.));
#3380=VERTEX_POINT('',#3370);
#3390=EDGE_CURVE('',#3380,#3300,#3360,.T.);
#3400=ORIENTED_EDGE('',*,*,#3390,.T.);
#3410=CARTESIAN_POINT('',(5.3776427755281E-16,0.,10.));
#3420=DIRECTION('',(0.,0.,-1.));
#3430=DIRECTION('',(1.,0.,0.));
#3440=AXIS2_PLACEMENT_3D('',#3410,#3420,#3430);
#3450=CIRCLE('',#3440,7.5);
#3460=CARTESIAN_POINT('',(-7.5,1.83690953073357E-15,10.));
#3470=VERTEX_POINT('',#3460);
#3480=EDGE_CURVE('',#3470,#3380,#3450,.T.);
#3490=ORIENTED_EDGE('',*,*,#3480,.T.);
#3500=CARTESIAN_POINT('',(-7.5,0.,10.));
#3510=DIRECTION('',(0.,1.,0.));
#3520=VECTOR('',#3510,1.);
#3530=LINE('',#3500,#3520);
#3540=CARTESIAN_POINT('',(-7.5,-7.5,10.));
#3550=VERTEX_POINT('',#3540);
#3560=EDGE_CURVE('',#3550,#3470,#3530,.T.);
#3570=ORIENTED_EDGE('',*,*,#3560,.T.);
#3580=CARTESIAN_POINT('',(0.,-7.5,10.));
#3590=DIRECTION('',(1.,0.,0.));
#3600=VECTOR('',#3590,1.);
#3610=LINE('',#3580,#3600);
#3620=CARTESIAN_POINT('',(-50.,-7.5,10.));
#3630=VERTEX_POINT('',#3620);
#3640=EDGE_CURVE('',#3630,#3550,#3610,.T.);
#3650=ORIENTED_EDGE('',*,*,#3640,.T.);
#3660=CARTESIAN_POINT('',(-50.,0.,10.));
#3670=DIRECTION('',(0.,-1.,0.));
#3680=VECTOR('',#3670,1.);
#3690=LINE('',#3660,#3680);
#3700=CARTESIAN_POINT('',(-50.,42.5,10.));
#3710=VERTEX_POINT('',#3700);
#3720=EDGE_CURVE('',#3710,#3630,#3690,.T.);
#3730=ORIENTED_EDGE('',*,*,#3720,.T.);
#3740=CARTESIAN_POINT('',(0.,42.5,10.));
#3750=DIRECTION('',(-1.,0.,0.));
#3760=VECTOR('',#3750,1.);
#3770=LINE('',#3740,#3760);
#3780=EDGE_CURVE('',#1810,#3710,#3770,.T.);
#3790=ORIENTED_EDGE('',*,*,#3780,.T.);
#3800=ORIENTED_EDGE('',*,*,#1820,.T.);
#3810=ORIENTED_EDGE('',*,*,#2680,.T.);
#3820=ORIENTED_EDGE('',*,*,#2220,.T.);
#3830=EDGE_LOOP('',(#3820,#3810,#3800,#3790,#3730,#3650,#3570,#3490,
#3400,#3320,#3240,#3230));
#3840=FACE_OUTER_BOUND('',#3830,.T.);
#3850=ORIENTED_EDGE('',*,*,#1070,.T.);
#3860=EDGE_CURVE('',#1060,#970,#1040,.T.);
#3870=ORIENTED_EDGE('',*,*,#3860,.T.);
#3880=EDGE_LOOP('',(#3870,#3850));
#3890=FACE_BOUND('',#3880,.T.);
#3900=ORIENTED_EDGE('',*,*,#1490,.T.);
#3910=EDGE_CURVE('',#1480,#1390,#1460,.T.);
#3920=ORIENTED_EDGE('',*,*,#3910,.T.);
#3930=EDGE_LOOP('',(#3920,#3900));
#3940=FACE_BOUND('',#3930,.T.);
#3950=ADVANCED_FACE('',(#3840,#3890,#3940),#3170,.T.);
#3960=CARTESIAN_POINT('',(7.5,-7.575,10.065));
#3970=DIRECTION('',(1.,0.,0.));
#3980=DIRECTION('',(0.,-1.,0.));
#3990=AXIS2_PLACEMENT_3D('',#3960,#3970,#3980);
#4000=PLANE('',#3990);
#4010=ORIENTED_EDGE('',*,*,#3390,.F.);
#4020=CARTESIAN_POINT('',(7.5,-7.5,0.));
#4030=DIRECTION('',(0.,0.,-1.));
#4040=VECTOR('',#4030,1.);
#4050=LINE('',#4020,#4040);
#4060=CARTESIAN_POINT('',(7.5,-7.5,4.5));
#4070=VERTEX_POINT('',#4060);
#4080=EDGE_CURVE('',#3300,#4070,#4050,.T.);
#4090=ORIENTED_EDGE('',*,*,#4080,.F.);
#4100=CARTESIAN_POINT('',(7.5,0.,4.5));
#4110=DIRECTION('',(0.,-1.,0.));
#4120=VECTOR('',#4110,1.);
#4130=LINE('',#4100,#4120);
#4140=CARTESIAN_POINT('',(7.5,0.,4.5));
#4150=VERTEX_POINT('',#4140);
#4160=EDGE_CURVE('',#4150,#4070,#4130,.T.);
#4170=ORIENTED_EDGE('',*,*,#4160,.T.);
#4180=CARTESIAN_POINT('',(7.5,0.,3.5));
#4190=DIRECTION('',(0.,0.,1.));
#4200=VECTOR('',#4190,1.);
#4210=LINE('',#4180,#4200);
#4220=EDGE_CURVE('',#4150,#3380,#4210,.T.);
#4230=ORIENTED_EDGE('',*,*,#4220,.F.);
#4240=EDGE_LOOP('',(#4230,#4170,#4090,#4010));
#4250=FACE_OUTER_BOUND('',#4240,.T.);
#4260=ADVANCED_FACE('',(#4250),#4000,.F.);
#4270=CARTESIAN_POINT('',(-7.5,-7.575,3.435));
#4280=DIRECTION('',(-1.,0.,0.));
#4290=DIRECTION('',(0.,1.,0.));
#4300=AXIS2_PLACEMENT_3D('',#4270,#4280,#4290);
#4310=PLANE('',#4300);
#4320=ORIENTED_EDGE('',*,*,#3560,.F.);
#4330=CARTESIAN_POINT('',(-7.5,1.83690953073357E-15,3.5));
#4340=DIRECTION('',(0.,0.,1.));
#4350=VECTOR('',#4340,1.);
#4360=LINE('',#4330,#4350);
#4370=CARTESIAN_POINT('',(-7.5,9.18485099360515E-16,4.5));
#4380=VERTEX_POINT('',#4370);
#4390=EDGE_CURVE('',#4380,#3470,#4360,.T.);
#4400=ORIENTED_EDGE('',*,*,#4390,.T.);
#4410=CARTESIAN_POINT('',(-7.5,0.,4.5));
#4420=DIRECTION('',(0.,1.,0.));
#4430=VECTOR('',#4420,1.);
#4440=LINE('',#4410,#4430);
#4450=CARTESIAN_POINT('',(-7.5,-7.5,4.5));
#4460=VERTEX_POINT('',#4450);
#4470=EDGE_CURVE('',#4460,#4380,#4440,.T.);
#4480=ORIENTED_EDGE('',*,*,#4470,.T.);
#4490=CARTESIAN_POINT('',(-7.5,-7.5,0.));
#4500=DIRECTION('',(0.,0.,1.));
#4510=VECTOR('',#4500,1.);
#4520=LINE('',#4490,#4510);
#4530=EDGE_CURVE('',#4460,#3550,#4520,.T.);
#4540=ORIENTED_EDGE('',*,*,#4530,.F.);
#4550=EDGE_LOOP('',(#4540,#4480,#4400,#4320));
#4560=FACE_OUTER_BOUND('',#4550,.T.);
#4570=ADVANCED_FACE('',(#4560),#4310,.F.);
#4580=CARTESIAN_POINT('',(5.3776427755281E-16,0.,3.435));
#4590=DIRECTION('',(0.,0.,1.));
#4600=DIRECTION('',(1.,0.,0.));
#4610=AXIS2_PLACEMENT_3D('',#4580,#4590,#4600);
#4620=CYLINDRICAL_SURFACE('',#4610,7.5);
#4630=ORIENTED_EDGE('',*,*,#4220,.T.);
#4640=CARTESIAN_POINT('',(5.3776427755281E-16,0.,4.5));
#4650=DIRECTION('',(0.,0.,1.));
#4660=DIRECTION('',(1.,0.,0.));
#4670=AXIS2_PLACEMENT_3D('',#4640,#4650,#4660);
#4680=CIRCLE('',#4670,7.5);
#4690=EDGE_CURVE('',#4150,#4380,#4680,.T.);
#4700=ORIENTED_EDGE('',*,*,#4690,.F.);
#4710=ORIENTED_EDGE('',*,*,#4390,.F.);
#4720=ORIENTED_EDGE('',*,*,#3480,.F.);
#4730=EDGE_LOOP('',(#4720,#4710,#4700,#4630));
#4740=FACE_OUTER_BOUND('',#4730,.T.);
#4750=ADVANCED_FACE('',(#4740),#4620,.F.);
#4760=CARTESIAN_POINT('',(-50.5,42.5,10.1));
#4770=DIRECTION('',(-0.,-1.,-0.));
#4780=DIRECTION('',(-1.,0.,0.));
#4790=AXIS2_PLACEMENT_3D('',#4760,#4770,#4780);
#4800=PLANE('',#4790);
#4810=ORIENTED_EDGE('',*,*,#2440,.T.);
#4820=CARTESIAN_POINT('',(0.,42.5,4.5));
#4830=DIRECTION('',(1.,0.,0.));
#4840=VECTOR('',#4830,1.);
#4850=LINE('',#4820,#4840);
#4860=EDGE_CURVE('',#1890,#2370,#4850,.T.);
#4870=ORIENTED_EDGE('',*,*,#4860,.T.);
#4880=ORIENTED_EDGE('',*,*,#1900,.T.);
#4890=ORIENTED_EDGE('',*,*,#3780,.F.);
#4900=CARTESIAN_POINT('',(-50.,42.5,0.));
#4910=DIRECTION('',(0.,0.,-1.));
#4920=VECTOR('',#4910,1.);
#4930=LINE('',#4900,#4920);
#4940=CARTESIAN_POINT('',(-50.,42.5,0.));
#4950=VERTEX_POINT('',#4940);
#4960=EDGE_CURVE('',#3710,#4950,#4930,.T.);
#4970=ORIENTED_EDGE('',*,*,#4960,.F.);
#4980=CARTESIAN_POINT('',(0.,42.5,0.));
#4990=DIRECTION('',(1.,0.,0.));
#5000=VECTOR('',#4990,1.);
#5010=LINE('',#4980,#5000);
#5020=EDGE_CURVE('',#4950,#3010,#5010,.T.);
#5030=ORIENTED_EDGE('',*,*,#5020,.F.);
#5040=ORIENTED_EDGE('',*,*,#3020,.T.);
#5050=ORIENTED_EDGE('',*,*,#3220,.F.);
#5060=EDGE_LOOP('',(#5050,#5040,#5030,#4970,#4890,#4880,#4870,#4810));
#5070=FACE_OUTER_BOUND('',#5060,.T.);
#5080=ADVANCED_FACE('',(#5070),#4800,.F.);
#5090=CARTESIAN_POINT('',(-50.5,-8.,0.));
#5100=DIRECTION('',(0.,0.,1.));
#5110=DIRECTION('',(1.,0.,0.));
#5120=AXIS2_PLACEMENT_3D('',#5090,#5100,#5110);
#5130=PLANE('',#5120);
#5140=EDGE_CURVE('',#950,#1140,#1210,.T.);
#5150=ORIENTED_EDGE('',*,*,#5140,.T.);
#5160=ORIENTED_EDGE('',*,*,#1220,.T.);
#5170=EDGE_LOOP('',(#5160,#5150));
#5180=FACE_BOUND('',#5170,.T.);
#5190=EDGE_CURVE('',#1370,#1560,#1630,.T.);
#5200=ORIENTED_EDGE('',*,*,#5190,.T.);
#5210=ORIENTED_EDGE('',*,*,#1640,.T.);
#5220=EDGE_LOOP('',(#5210,#5200));
#5230=FACE_BOUND('',#5220,.T.);
#5240=EDGE_CURVE('',#130,#220,#200,.T.);
#5250=ORIENTED_EDGE('',*,*,#5240,.F.);
#5260=ORIENTED_EDGE('',*,*,#230,.F.);
#5270=EDGE_LOOP('',(#5260,#5250));
#5280=FACE_BOUND('',#5270,.T.);
#5290=EDGE_CURVE('',#550,#640,#620,.T.);
#5300=ORIENTED_EDGE('',*,*,#5290,.F.);
#5310=ORIENTED_EDGE('',*,*,#650,.F.);
#5320=EDGE_LOOP('',(#5310,#5300));
#5330=FACE_BOUND('',#5320,.T.);
#5340=ORIENTED_EDGE('',*,*,#3080,.T.);
#5350=ORIENTED_EDGE('',*,*,#5020,.T.);
#5360=CARTESIAN_POINT('',(-50.,0.,0.));
#5370=DIRECTION('',(0.,1.,0.));
#5380=VECTOR('',#5370,1.);
#5390=LINE('',#5360,#5380);
#5400=CARTESIAN_POINT('',(-50.,-7.5,0.));
#5410=VERTEX_POINT('',#5400);
#5420=EDGE_CURVE('',#5410,#4950,#5390,.T.);
#5430=ORIENTED_EDGE('',*,*,#5420,.T.);
#5440=CARTESIAN_POINT('',(0.,-7.5,0.));
#5450=DIRECTION('',(-1.,0.,0.));
#5460=VECTOR('',#5450,1.);
#5470=LINE('',#5440,#5460);
#5480=EDGE_CURVE('',#2850,#5410,#5470,.T.);
#5490=ORIENTED_EDGE('',*,*,#5480,.T.);
#5500=EDGE_LOOP('',(#5490,#5430,#5350,#5340));
#5510=FACE_OUTER_BOUND('',#5500,.T.);
#5520=ADVANCED_FACE('',(#5180,#5230,#5280,#5330,#5510),#5130,.F.);
#5530=CARTESIAN_POINT('',(-50.5,-7.5,-0.0999999999999996));
#5540=DIRECTION('',(-0.,1.,0.));
#5550=DIRECTION('',(1.,0.,0.));
#5560=AXIS2_PLACEMENT_3D('',#5530,#5540,#5550);
#5570=PLANE('',#5560);
#5580=ORIENTED_EDGE('',*,*,#4530,.T.);
#5590=CARTESIAN_POINT('',(0.,-7.5,4.5));
#5600=DIRECTION('',(-1.,0.,0.));
#5610=VECTOR('',#5600,1.);
#5620=LINE('',#5590,#5610);
#5630=EDGE_CURVE('',#4070,#4460,#5620,.T.);
#5640=ORIENTED_EDGE('',*,*,#5630,.T.);
#5650=ORIENTED_EDGE('',*,*,#4080,.T.);
#5660=ORIENTED_EDGE('',*,*,#3310,.F.);
#5670=ORIENTED_EDGE('',*,*,#2860,.F.);
#5680=ORIENTED_EDGE('',*,*,#5480,.F.);
#5690=CARTESIAN_POINT('',(-50.,-7.5,0.));
#5700=DIRECTION('',(0.,0.,-1.));
#5710=VECTOR('',#5700,1.);
#5720=LINE('',#5690,#5710);
#5730=EDGE_CURVE('',#3630,#5410,#5720,.T.);
#5740=ORIENTED_EDGE('',*,*,#5730,.T.);
#5750=ORIENTED_EDGE('',*,*,#3640,.F.);
#5760=EDGE_LOOP('',(#5750,#5740,#5680,#5670,#5660,#5650,#5640,#5580));
#5770=FACE_OUTER_BOUND('',#5760,.T.);
#5780=ADVANCED_FACE('',(#5770),#5570,.F.);
#5790=CARTESIAN_POINT('',(-50.,-8.,10.1));
#5800=DIRECTION('',(1.,0.,0.));
#5810=DIRECTION('',(0.,-1.,0.));
#5820=AXIS2_PLACEMENT_3D('',#5790,#5800,#5810);
#5830=PLANE('',#5820);
#5840=ORIENTED_EDGE('',*,*,#4960,.T.);
#5850=ORIENTED_EDGE('',*,*,#3720,.F.);
#5860=ORIENTED_EDGE('',*,*,#5730,.F.);
#5870=ORIENTED_EDGE('',*,*,#5420,.F.);
#5880=EDGE_LOOP('',(#5870,#5860,#5850,#5840));
#5890=FACE_OUTER_BOUND('',#5880,.T.);
#5900=ADVANCED_FACE('',(#5890),#5830,.F.);
#5910=CARTESIAN_POINT('',(40.,17.5,-0.100000000000001));
#5920=DIRECTION('',(0.,0.,1.));
#5930=DIRECTION('',(1.,0.,0.));
#5940=AXIS2_PLACEMENT_3D('',#5910,#5920,#5930);
#5950=CYLINDRICAL_SURFACE('',#5940,4.5);
#5960=ORIENTED_EDGE('',*,*,#980,.T.);
#5970=ORIENTED_EDGE('',*,*,#5140,.F.);
#5980=ORIENTED_EDGE('',*,*,#1150,.F.);
#5990=ORIENTED_EDGE('',*,*,#3860,.F.);
#6000=EDGE_LOOP('',(#5990,#5980,#5970,#5960));
#6010=FACE_OUTER_BOUND('',#6000,.T.);
#6020=ADVANCED_FACE('',(#6010),#5950,.F.);
#6030=CARTESIAN_POINT('',(-1.64925798162276E-32,6.72775466711792E-17,
3.535));
#6040=DIRECTION('',(0.,0.,-1.));
#6050=DIRECTION('',(-1.,0.,0.));
#6060=AXIS2_PLACEMENT_3D('',#6030,#6040,#6050);
#6070=CYLINDRICAL_SURFACE('',#6060,4.5);
#6080=EDGE_CURVE('',#530,#720,#790,.T.);
#6090=ORIENTED_EDGE('',*,*,#6080,.F.);
#6100=ORIENTED_EDGE('',*,*,#730,.F.);
#6110=ORIENTED_EDGE('',*,*,#5290,.T.);
#6120=ORIENTED_EDGE('',*,*,#560,.T.);
#6130=EDGE_LOOP('',(#6120,#6110,#6100,#6090));
#6140=FACE_OUTER_BOUND('',#6130,.T.);
#6150=ADVANCED_FACE('',(#6140),#6070,.F.);
#6160=CARTESIAN_POINT('',(-40.,17.5,-0.100000000000003));
#6170=DIRECTION('',(0.,0.,1.));
#6180=DIRECTION('',(1.,0.,0.));
#6190=AXIS2_PLACEMENT_3D('',#6160,#6170,#6180);
#6200=CYLINDRICAL_SURFACE('',#6190,4.5);
#6210=ORIENTED_EDGE('',*,*,#1400,.T.);
#6220=ORIENTED_EDGE('',*,*,#5190,.F.);
#6230=ORIENTED_EDGE('',*,*,#1570,.F.);
#6240=ORIENTED_EDGE('',*,*,#3910,.F.);
#6250=EDGE_LOOP('',(#6240,#6230,#6220,#6210));
#6260=FACE_OUTER_BOUND('',#6250,.T.);
#6270=ADVANCED_FACE('',(#6260),#6200,.F.);
#6280=CARTESIAN_POINT('',(0.,35.,3.535));
#6290=DIRECTION('',(0.,0.,-1.));
#6300=DIRECTION('',(-1.,0.,0.));
#6310=AXIS2_PLACEMENT_3D('',#6280,#6290,#6300);
#6320=CYLINDRICAL_SURFACE('',#6310,4.5);
#6330=EDGE_CURVE('',#110,#300,#370,.T.);
#6340=ORIENTED_EDGE('',*,*,#6330,.F.);
#6350=ORIENTED_EDGE('',*,*,#310,.F.);
#6360=ORIENTED_EDGE('',*,*,#5240,.T.);
#6370=ORIENTED_EDGE('',*,*,#140,.T.);
#6380=EDGE_LOOP('',(#6370,#6360,#6350,#6340));
#6390=FACE_OUTER_BOUND('',#6380,.T.);
#6400=ADVANCED_FACE('',(#6390),#6320,.F.);
#6410=CARTESIAN_POINT('',(7.65,42.65,4.5));
#6420=DIRECTION('',(0.,0.,1.));
#6430=DIRECTION('',(1.,0.,0.));
#6440=AXIS2_PLACEMENT_3D('',#6410,#6420,#6430);
#6450=PLANE('',#6440);
#6460=ORIENTED_EDGE('',*,*,#1980,.F.);
#6470=ORIENTED_EDGE('',*,*,#4860,.F.);
#6480=ORIENTED_EDGE('',*,*,#2380,.F.);
#6490=ORIENTED_EDGE('',*,*,#2600,.T.);
#6500=EDGE_LOOP('',(#6490,#6480,#6470,#6460));
#6510=FACE_OUTER_BOUND('',#6500,.T.);
#6520=ORIENTED_EDGE('',*,*,#6330,.T.);
#6530=ORIENTED_EDGE('',*,*,#380,.T.);
#6540=EDGE_LOOP('',(#6530,#6520));
#6550=FACE_BOUND('',#6540,.T.);
#6560=ADVANCED_FACE('',(#6510,#6550),#6450,.T.);
#6570=CARTESIAN_POINT('',(-7.65,-7.65,4.5));
#6580=DIRECTION('',(0.,0.,1.));
#6590=DIRECTION('',(1.,0.,0.));
#6600=AXIS2_PLACEMENT_3D('',#6570,#6580,#6590);
#6610=PLANE('',#6600);
#6620=ORIENTED_EDGE('',*,*,#4160,.F.);
#6630=ORIENTED_EDGE('',*,*,#5630,.F.);
#6640=ORIENTED_EDGE('',*,*,#4470,.F.);
#6650=ORIENTED_EDGE('',*,*,#4690,.T.);
#6660=EDGE_LOOP('',(#6650,#6640,#6630,#6620));
#6670=FACE_OUTER_BOUND('',#6660,.T.);
#6680=ORIENTED_EDGE('',*,*,#6080,.T.);
#6690=ORIENTED_EDGE('',*,*,#800,.T.);
#6700=EDGE_LOOP('',(#6690,#6680));
#6710=FACE_BOUND('',#6700,.T.);
#6720=ADVANCED_FACE('',(#6670,#6710),#6610,.T.);
#6730=CLOSED_SHELL('',(#6560,#6720,#420,#840,#1260,#1680,#2080,#2480,
#2720,#3120,#3950,#4260,#4570,#4750,#5080,#5520,#5780,#5900,#6020,#6150,
#6270,#6400));
#6740=MANIFOLD_SOLID_BREP('',#6730);
#6750=CARTESIAN_POINT('',(0.,0.,0.));
#6760=DIRECTION('',(0.,0.,1.));
#6770=DIRECTION('',(1.,0.,0.));
#6780=AXIS2_PLACEMENT_3D('',#6750,#6760,#6770);
#6790=APPLICATION_CONTEXT(' ');
#6800=APPLICATION_PROTOCOL_DEFINITION(' ','automotive_design',1998,#6790
);
#6810=PRODUCT_CONTEXT('',#6790,'mechanical');
#6820=PRODUCT_DEFINITION_CONTEXT('part definition',#6790,'design');
#6830=PRODUCT('Sockelplatte-MMS-55_100x50x10-P-50-25_55.0235.2_PX176213'
,'Sockelplatte-MMS-55_100x50x10-P-50-25_55.0235.2_PX176213','',(#6810));
#6840=PRODUCT_RELATED_PRODUCT_CATEGORY('part',' ',(#6830));
#6850=PRODUCT_DEFINITION_FORMATION_WITH_SPECIFIED_SOURCE('','',#6830,
.BOUGHT.);
#6860=PRODUCT_DEFINITION('',' ',#6850,#6820);
#6870=PRODUCT_DEFINITION_SHAPE('','',#6860);
#6880=DIMENSIONAL_EXPONENTS(1.,0.,0.,0.,0.,0.,0.);
#6890=DIMENSIONAL_EXPONENTS(0.,0.,0.,0.,0.,0.,0.);
#6900=DIMENSIONAL_EXPONENTS(0.,0.,0.,0.,0.,0.,0.);
#6910=(LENGTH_UNIT() NAMED_UNIT(*) SI_UNIT(.MILLI.,.METRE.));
#6920=(NAMED_UNIT(*) PLANE_ANGLE_UNIT() SI_UNIT($,.RADIAN.));
#6930=(NAMED_UNIT(*) SI_UNIT($,.STERADIAN.) SOLID_ANGLE_UNIT());
#6940=(GEOMETRIC_REPRESENTATION_CONTEXT(3) 
GLOBAL_UNCERTAINTY_ASSIGNED_CONTEXT((#6950)) 
GLOBAL_UNIT_ASSIGNED_CONTEXT((#6910,#6920,#6930)) REPRESENTATION_CONTEXT
('',''));
#6950=UNCERTAINTY_MEASURE_WITH_UNIT(LENGTH_MEASURE(1.E-6),#6910,
'distance_accuracy_value','maximum gap value');
#6960=ADVANCED_BREP_SHAPE_REPRESENTATION('',(#6780,#6740),#6940);
#6970=SHAPE_DEFINITION_REPRESENTATION(#6870,#6960);
#6980=COLOUR_RGB('',0.690196096897125,0.886274576187134,1.);
#6990=FILL_AREA_STYLE_COLOUR('',#6980);
#7000=FILL_AREA_STYLE('',(#6990));
#7010=SURFACE_STYLE_FILL_AREA(#7000);
#7020=SURFACE_SIDE_STYLE('',(#7010));
#7030=SURFACE_STYLE_USAGE(.BOTH.,#7020);
#7040=PRESENTATION_STYLE_ASSIGNMENT((#7030));
#7050=STYLED_ITEM('',(#7040),#6740);
#7060=DRAUGHTING_MODEL('',(#7050),#6940);
ENDSEC;
END-ISO-10303-21;
