ISO-10303-21;
HEADER;
FILE_DESCRIPTION(('Creo Elements/Direct Modeling STEP Export'),'2;1');
FILE_NAME(
'//KR-CAD2/PhoenixTemp/karl.letzgus/Konvertierung/55.0306.3_Abdeckkappe-
MMS-55_50x25x5.stp','2022-03-21T 8:08:24',(''),(''),
'PTC Creo Elements/Direct Modeling STEP processor for AP214 (Solid Model
)',
'PTC Creo Elements/Direct Modeling 19.0C  15-Aug-2015 (C) Parametric Tec
hnology GmbH','');
FILE_SCHEMA(('AUTOMOTIVE_DESIGN { 1 0 10303 214 1 1 1 1 }'));
ENDSEC;
DATA;
#10=CARTESIAN_POINT('',(0.,0.,0.));
#20=DIRECTION('',(0.,0.,1.));
#30=DIRECTION('',(1.,0.,0.));
#40=AXIS2_PLACEMENT_3D('',#10,#20,#30);
#50=PLANE('',#40);
#60=CARTESIAN_POINT('',(0.,-6.,0.));
#70=DIRECTION('',(1.,0.,0.));
#80=VECTOR('',#70,1.);
#90=LINE('',#60,#80);
#100=CARTESIAN_POINT('',(-1.,-6.,0.));
#110=VERTEX_POINT('',#100);
#120=CARTESIAN_POINT('',(21.,-6.,0.));
#130=VERTEX_POINT('',#120);
#140=EDGE_CURVE('',#110,#130,#90,.T.);
#150=ORIENTED_EDGE('',*,*,#140,.F.);
#160=CARTESIAN_POINT('',(21.,0.,0.));
#170=DIRECTION('',(0.,1.,0.));
#180=VECTOR('',#170,1.);
#190=LINE('',#160,#180);
#200=CARTESIAN_POINT('',(21.,41.,0.));
#210=VERTEX_POINT('',#200);
#220=EDGE_CURVE('',#130,#210,#190,.T.);
#230=ORIENTED_EDGE('',*,*,#220,.F.);
#240=CARTESIAN_POINT('',(0.,41.,0.));
#250=DIRECTION('',(-1.,0.,0.));
#260=VECTOR('',#250,1.);
#270=LINE('',#240,#260);
#280=CARTESIAN_POINT('',(-1.,41.,0.));
#290=VERTEX_POINT('',#280);
#300=EDGE_CURVE('',#210,#290,#270,.T.);
#310=ORIENTED_EDGE('',*,*,#300,.F.);
#320=CARTESIAN_POINT('',(-1.,0.,0.));
#330=DIRECTION('',(0.,-1.,0.));
#340=VECTOR('',#330,1.);
#350=LINE('',#320,#340);
#360=EDGE_CURVE('',#290,#110,#350,.T.);
#370=ORIENTED_EDGE('',*,*,#360,.F.);
#380=EDGE_LOOP('',(#370,#310,#230,#150));
#390=FACE_OUTER_BOUND('',#380,.T.);
#400=ADVANCED_FACE('',(#390),#50,.F.);
#410=CARTESIAN_POINT('',(21.,0.,1.5));
#420=DIRECTION('',(0.,1.,0.));
#430=DIRECTION('',(1.,0.,0.));
#440=AXIS2_PLACEMENT_3D('',#410,#420,#430);
#450=CYLINDRICAL_SURFACE('',#440,1.5);
#460=CARTESIAN_POINT('',(21.,-6.,1.5));
#470=DIRECTION('',(0.707106781186548,0.707106781186548,0.));
#480=DIRECTION('',(-0.707106781186548,0.707106781186548,0.));
#490=AXIS2_PLACEMENT_3D('',#460,#470,#480);
#500=ELLIPSE('',#490,2.12132034355964,1.5);
#510=CARTESIAN_POINT('',(22.0606601717798,-7.06066017177982,
0.439339828220179));
#520=VERTEX_POINT('',#510);
#530=EDGE_CURVE('',#520,#130,#500,.T.);
#540=ORIENTED_EDGE('',*,*,#530,.T.);
#550=CARTESIAN_POINT('',(21.,-6.,1.5));
#560=DIRECTION('',(0.,-0.707106781186548,0.707106781186548));
#570=DIRECTION('',(0.,0.707106781186548,0.707106781186548));
#580=AXIS2_PLACEMENT_3D('',#550,#560,#570);
#590=ELLIPSE('',#580,2.12132034355964,1.5);
#600=CARTESIAN_POINT('',(22.5,-6.,1.5));
#610=VERTEX_POINT('',#600);
#620=EDGE_CURVE('',#520,#610,#590,.T.);
#630=ORIENTED_EDGE('',*,*,#620,.F.);
#640=CARTESIAN_POINT('',(22.5,0.,1.5));
#650=DIRECTION('',(0.,1.,0.));
#660=VECTOR('',#650,1.);
#670=LINE('',#640,#660);
#680=CARTESIAN_POINT('',(22.5,41.,1.5));
#690=VERTEX_POINT('',#680);
#700=EDGE_CURVE('',#610,#690,#670,.T.);
#710=ORIENTED_EDGE('',*,*,#700,.F.);
#720=CARTESIAN_POINT('',(21.,41.,1.5));
#730=DIRECTION('',(0.,0.707106781186548,0.707106781186548));
#740=DIRECTION('',(0.,0.707106781186548,-0.707106781186548));
#750=AXIS2_PLACEMENT_3D('',#720,#730,#740);
#760=ELLIPSE('',#750,2.12132034355964,1.5);
#770=CARTESIAN_POINT('',(22.0606601717798,42.0606601717798,
0.439339828220178));
#780=VERTEX_POINT('',#770);
#790=EDGE_CURVE('',#690,#780,#760,.T.);
#800=ORIENTED_EDGE('',*,*,#790,.F.);
#810=CARTESIAN_POINT('',(21.,41.,1.5));
#820=DIRECTION('',(-0.707106781186548,0.707106781186548,0.));
#830=DIRECTION('',(0.707106781186548,0.707106781186548,0.));
#840=AXIS2_PLACEMENT_3D('',#810,#820,#830);
#850=ELLIPSE('',#840,2.12132034355964,1.5);
#860=EDGE_CURVE('',#780,#210,#850,.T.);
#870=ORIENTED_EDGE('',*,*,#860,.F.);
#880=ORIENTED_EDGE('',*,*,#220,.T.);
#890=EDGE_LOOP('',(#880,#870,#800,#710,#630,#540));
#900=FACE_OUTER_BOUND('',#890,.T.);
#910=ADVANCED_FACE('',(#900),#450,.T.);
#920=CARTESIAN_POINT('',(0.,41.,1.5));
#930=DIRECTION('',(-1.,0.,0.));
#940=DIRECTION('',(0.,1.,0.));
#950=AXIS2_PLACEMENT_3D('',#920,#930,#940);
#960=CYLINDRICAL_SURFACE('',#950,1.5);
#970=ORIENTED_EDGE('',*,*,#860,.T.);
#980=CARTESIAN_POINT('',(21.,41.,1.5));
#990=DIRECTION('',(0.707106781186548,0.,0.707106781186548));
#1000=DIRECTION('',(-0.707106781186548,0.,0.707106781186548));
#1010=AXIS2_PLACEMENT_3D('',#980,#990,#1000);
#1020=ELLIPSE('',#1010,2.12132034355964,1.5);
#1030=CARTESIAN_POINT('',(21.,42.5,1.5));
#1040=VERTEX_POINT('',#1030);
#1050=EDGE_CURVE('',#780,#1040,#1020,.T.);
#1060=ORIENTED_EDGE('',*,*,#1050,.F.);
#1070=CARTESIAN_POINT('',(0.,42.5,1.5));
#1080=DIRECTION('',(-1.,0.,0.));
#1090=VECTOR('',#1080,1.);
#1100=LINE('',#1070,#1090);
#1110=CARTESIAN_POINT('',(-1.,42.5,1.5));
#1120=VERTEX_POINT('',#1110);
#1130=EDGE_CURVE('',#1040,#1120,#1100,.T.);
#1140=ORIENTED_EDGE('',*,*,#1130,.F.);
#1150=CARTESIAN_POINT('',(-1.,41.,1.5));
#1160=DIRECTION('',(0.707106781186548,0.,-0.707106781186548));
#1170=DIRECTION('',(-0.707106781186548,0.,-0.707106781186548));
#1180=AXIS2_PLACEMENT_3D('',#1150,#1160,#1170);
#1190=ELLIPSE('',#1180,2.12132034355964,1.5);
#1200=CARTESIAN_POINT('',(-2.06066017177982,42.0606601717798,
0.439339828220179));
#1210=VERTEX_POINT('',#1200);
#1220=EDGE_CURVE('',#1210,#1120,#1190,.T.);
#1230=ORIENTED_EDGE('',*,*,#1220,.T.);
#1240=CARTESIAN_POINT('',(-1.,41.,1.5));
#1250=DIRECTION('',(-0.707106781186548,-0.707106781186548,0.));
#1260=DIRECTION('',(0.707106781186548,-0.707106781186548,0.));
#1270=AXIS2_PLACEMENT_3D('',#1240,#1250,#1260);
#1280=ELLIPSE('',#1270,2.12132034355964,1.5);
#1290=EDGE_CURVE('',#1210,#290,#1280,.T.);
#1300=ORIENTED_EDGE('',*,*,#1290,.F.);
#1310=ORIENTED_EDGE('',*,*,#300,.T.);
#1320=EDGE_LOOP('',(#1310,#1300,#1230,#1140,#1060,#970));
#1330=FACE_OUTER_BOUND('',#1320,.T.);
#1340=ADVANCED_FACE('',(#1330),#960,.T.);
#1350=CARTESIAN_POINT('',(0.,-6.,1.5));
#1360=DIRECTION('',(1.,0.,0.));
#1370=DIRECTION('',(0.,-1.,0.));
#1380=AXIS2_PLACEMENT_3D('',#1350,#1360,#1370);
#1390=CYLINDRICAL_SURFACE('',#1380,1.5);
#1400=CARTESIAN_POINT('',(21.,-6.,1.5));
#1410=DIRECTION('',(0.707106781186548,0.,0.707106781186548));
#1420=DIRECTION('',(-0.707106781186548,0.,0.707106781186548));
#1430=AXIS2_PLACEMENT_3D('',#1400,#1410,#1420);
#1440=ELLIPSE('',#1430,2.12132034355964,1.5);
#1450=CARTESIAN_POINT('',(21.,-7.5,1.5));
#1460=VERTEX_POINT('',#1450);
#1470=EDGE_CURVE('',#1460,#520,#1440,.T.);
#1480=ORIENTED_EDGE('',*,*,#1470,.F.);
#1490=ORIENTED_EDGE('',*,*,#530,.F.);
#1500=ORIENTED_EDGE('',*,*,#140,.T.);
#1510=CARTESIAN_POINT('',(-1.,-6.,1.5));
#1520=DIRECTION('',(0.707106781186548,-0.707106781186548,0.));
#1530=DIRECTION('',(-0.707106781186548,-0.707106781186548,0.));
#1540=AXIS2_PLACEMENT_3D('',#1510,#1520,#1530);
#1550=ELLIPSE('',#1540,2.12132034355964,1.5);
#1560=CARTESIAN_POINT('',(-2.06066017177982,-7.06066017177982,
0.439339828220179));
#1570=VERTEX_POINT('',#1560);
#1580=EDGE_CURVE('',#1570,#110,#1550,.T.);
#1590=ORIENTED_EDGE('',*,*,#1580,.T.);
#1600=CARTESIAN_POINT('',(-1.,-6.,1.5));
#1610=DIRECTION('',(-0.707106781186548,0.,0.707106781186548));
#1620=DIRECTION('',(0.707106781186548,0.,0.707106781186548));
#1630=AXIS2_PLACEMENT_3D('',#1600,#1610,#1620);
#1640=ELLIPSE('',#1630,2.12132034355964,1.5);
#1650=CARTESIAN_POINT('',(-1.,-7.5,1.5));
#1660=VERTEX_POINT('',#1650);
#1670=EDGE_CURVE('',#1570,#1660,#1640,.T.);
#1680=ORIENTED_EDGE('',*,*,#1670,.F.);
#1690=CARTESIAN_POINT('',(0.,-7.5,1.5));
#1700=DIRECTION('',(1.,0.,0.));
#1710=VECTOR('',#1700,1.);
#1720=LINE('',#1690,#1710);
#1730=EDGE_CURVE('',#1660,#1460,#1720,.T.);
#1740=ORIENTED_EDGE('',*,*,#1730,.F.);
#1750=EDGE_LOOP('',(#1740,#1680,#1590,#1500,#1490,#1480));
#1760=FACE_OUTER_BOUND('',#1750,.T.);
#1770=ADVANCED_FACE('',(#1760),#1390,.T.);
#1780=CARTESIAN_POINT('',(-1.,0.,1.5));
#1790=DIRECTION('',(0.,-1.,0.));
#1800=DIRECTION('',(-1.,0.,0.));
#1810=AXIS2_PLACEMENT_3D('',#1780,#1790,#1800);
#1820=CYLINDRICAL_SURFACE('',#1810,1.5);
#1830=ORIENTED_EDGE('',*,*,#1290,.T.);
#1840=CARTESIAN_POINT('',(-1.,41.,1.5));
#1850=DIRECTION('',(0.,-0.707106781186548,-0.707106781186548));
#1860=DIRECTION('',(0.,0.707106781186548,-0.707106781186548));
#1870=AXIS2_PLACEMENT_3D('',#1840,#1850,#1860);
#1880=ELLIPSE('',#1870,2.12132034355964,1.5);
#1890=CARTESIAN_POINT('',(-2.5,41.,1.5));
#1900=VERTEX_POINT('',#1890);
#1910=EDGE_CURVE('',#1900,#1210,#1880,.T.);
#1920=ORIENTED_EDGE('',*,*,#1910,.T.);
#1930=CARTESIAN_POINT('',(-2.5,0.,1.5));
#1940=DIRECTION('',(0.,-1.,0.));
#1950=VECTOR('',#1940,1.);
#1960=LINE('',#1930,#1950);
#1970=CARTESIAN_POINT('',(-2.5,-6.,1.5));
#1980=VERTEX_POINT('',#1970);
#1990=EDGE_CURVE('',#1900,#1980,#1960,.T.);
#2000=ORIENTED_EDGE('',*,*,#1990,.F.);
#2010=CARTESIAN_POINT('',(-1.,-6.,1.5));
#2020=DIRECTION('',(0.,-0.707106781186548,0.707106781186548));
#2030=DIRECTION('',(0.,-0.707106781186548,-0.707106781186548));
#2040=AXIS2_PLACEMENT_3D('',#2010,#2020,#2030);
#2050=ELLIPSE('',#2040,2.12132034355964,1.5);
#2060=EDGE_CURVE('',#1980,#1570,#2050,.T.);
#2070=ORIENTED_EDGE('',*,*,#2060,.F.);
#2080=ORIENTED_EDGE('',*,*,#1580,.F.);
#2090=ORIENTED_EDGE('',*,*,#360,.T.);
#2100=EDGE_LOOP('',(#2090,#2080,#2070,#2000,#1920,#1830));
#2110=FACE_OUTER_BOUND('',#2100,.T.);
#2120=ADVANCED_FACE('',(#2110),#1820,.T.);
#2130=CARTESIAN_POINT('',(0.,0.,5.));
#2140=DIRECTION('',(0.,0.,1.));
#2150=DIRECTION('',(1.,0.,0.));
#2160=AXIS2_PLACEMENT_3D('',#2130,#2140,#2150);
#2170=PLANE('',#2160);
#2180=CARTESIAN_POINT('',(10.,35.,5.));
#2190=DIRECTION('',(0.,0.,1.));
#2200=DIRECTION('',(-1.,0.,0.));
#2210=AXIS2_PLACEMENT_3D('',#2180,#2190,#2200);
#2220=CIRCLE('',#2210,3.4);
#2230=CARTESIAN_POINT('',(6.6,35.,5.));
#2240=VERTEX_POINT('',#2230);
#2250=CARTESIAN_POINT('',(13.4,35.,5.));
#2260=VERTEX_POINT('',#2250);
#2270=EDGE_CURVE('',#2240,#2260,#2220,.T.);
#2280=ORIENTED_EDGE('',*,*,#2270,.F.);
#2290=EDGE_CURVE('',#2260,#2240,#2220,.T.);
#2300=ORIENTED_EDGE('',*,*,#2290,.F.);
#2310=EDGE_LOOP('',(#2300,#2280));
#2320=FACE_BOUND('',#2310,.T.);
#2330=CARTESIAN_POINT('',(10.,0.,5.));
#2340=DIRECTION('',(0.,0.,1.));
#2350=DIRECTION('',(-1.,0.,0.));
#2360=AXIS2_PLACEMENT_3D('',#2330,#2340,#2350);
#2370=CIRCLE('',#2360,3.4);
#2380=CARTESIAN_POINT('',(6.6,0.,5.));
#2390=VERTEX_POINT('',#2380);
#2400=CARTESIAN_POINT('',(13.4,-4.163799117101E-16,5.));
#2410=VERTEX_POINT('',#2400);
#2420=EDGE_CURVE('',#2390,#2410,#2370,.T.);
#2430=ORIENTED_EDGE('',*,*,#2420,.F.);
#2440=EDGE_CURVE('',#2410,#2390,#2370,.T.);
#2450=ORIENTED_EDGE('',*,*,#2440,.F.);
#2460=EDGE_LOOP('',(#2450,#2430));
#2470=FACE_BOUND('',#2460,.T.);
#2480=CARTESIAN_POINT('',(-1.,41.,5.));
#2490=DIRECTION('',(0.,0.,-1.));
#2500=DIRECTION('',(-1.,0.,0.));
#2510=AXIS2_PLACEMENT_3D('',#2480,#2490,#2500);
#2520=CIRCLE('',#2510,1.5);
#2530=CARTESIAN_POINT('',(-2.5,41.,5.));
#2540=VERTEX_POINT('',#2530);
#2550=CARTESIAN_POINT('',(-1.,42.5,5.));
#2560=VERTEX_POINT('',#2550);
#2570=EDGE_CURVE('',#2540,#2560,#2520,.T.);
#2580=ORIENTED_EDGE('',*,*,#2570,.F.);
#2590=CARTESIAN_POINT('',(40.,42.5,5.));
#2600=DIRECTION('',(-1.,0.,0.));
#2610=VECTOR('',#2600,1.);
#2620=LINE('',#2590,#2610);
#2630=CARTESIAN_POINT('',(21.,42.5,5.));
#2640=VERTEX_POINT('',#2630);
#2650=EDGE_CURVE('',#2640,#2560,#2620,.T.);
#2660=ORIENTED_EDGE('',*,*,#2650,.T.);
#2670=CARTESIAN_POINT('',(21.,41.,5.));
#2680=DIRECTION('',(0.,0.,1.));
#2690=DIRECTION('',(1.,0.,0.));
#2700=AXIS2_PLACEMENT_3D('',#2670,#2680,#2690);
#2710=CIRCLE('',#2700,1.5);
#2720=CARTESIAN_POINT('',(22.5,41.,5.));
#2730=VERTEX_POINT('',#2720);
#2740=EDGE_CURVE('',#2730,#2640,#2710,.T.);
#2750=ORIENTED_EDGE('',*,*,#2740,.T.);
#2760=CARTESIAN_POINT('',(22.5,0.,5.));
#2770=DIRECTION('',(0.,1.,0.));
#2780=VECTOR('',#2770,1.);
#2790=LINE('',#2760,#2780);
#2800=CARTESIAN_POINT('',(22.5,-6.,5.));
#2810=VERTEX_POINT('',#2800);
#2820=EDGE_CURVE('',#2810,#2730,#2790,.T.);
#2830=ORIENTED_EDGE('',*,*,#2820,.T.);
#2840=CARTESIAN_POINT('',(21.,-6.,5.));
#2850=DIRECTION('',(0.,0.,1.));
#2860=DIRECTION('',(1.,0.,0.));
#2870=AXIS2_PLACEMENT_3D('',#2840,#2850,#2860);
#2880=CIRCLE('',#2870,1.5);
#2890=CARTESIAN_POINT('',(21.,-7.5,5.));
#2900=VERTEX_POINT('',#2890);
#2910=EDGE_CURVE('',#2900,#2810,#2880,.T.);
#2920=ORIENTED_EDGE('',*,*,#2910,.T.);
#2930=CARTESIAN_POINT('',(0.,-7.5,5.));
#2940=DIRECTION('',(1.,0.,0.));
#2950=VECTOR('',#2940,1.);
#2960=LINE('',#2930,#2950);
#2970=CARTESIAN_POINT('',(-1.,-7.5,5.));
#2980=VERTEX_POINT('',#2970);
#2990=EDGE_CURVE('',#2980,#2900,#2960,.T.);
#3000=ORIENTED_EDGE('',*,*,#2990,.T.);
#3010=CARTESIAN_POINT('',(-1.,-6.,5.));
#3020=DIRECTION('',(0.,0.,1.));
#3030=DIRECTION('',(1.,0.,0.));
#3040=AXIS2_PLACEMENT_3D('',#3010,#3020,#3030);
#3050=CIRCLE('',#3040,1.5);
#3060=CARTESIAN_POINT('',(-2.5,-6.,5.));
#3070=VERTEX_POINT('',#3060);
#3080=EDGE_CURVE('',#3070,#2980,#3050,.T.);
#3090=ORIENTED_EDGE('',*,*,#3080,.T.);
#3100=CARTESIAN_POINT('',(-2.5,40.,5.));
#3110=DIRECTION('',(0.,-1.,0.));
#3120=VECTOR('',#3110,1.);
#3130=LINE('',#3100,#3120);
#3140=EDGE_CURVE('',#2540,#3070,#3130,.T.);
#3150=ORIENTED_EDGE('',*,*,#3140,.T.);
#3160=EDGE_LOOP('',(#3150,#3090,#3000,#2920,#2830,#2750,#2660,#2580));
#3170=FACE_OUTER_BOUND('',#3160,.T.);
#3180=ADVANCED_FACE('',(#2320,#2470,#3170),#2170,.T.);
#3190=CARTESIAN_POINT('',(-2.5,0.,0.));
#3200=DIRECTION('',(-1.,0.,0.));
#3210=DIRECTION('',(0.,1.,0.));
#3220=AXIS2_PLACEMENT_3D('',#3190,#3200,#3210);
#3230=PLANE('',#3220);
#3240=ORIENTED_EDGE('',*,*,#3140,.F.);
#3250=CARTESIAN_POINT('',(-2.5,-6.,0.));
#3260=DIRECTION('',(0.,0.,1.));
#3270=VECTOR('',#3260,1.);
#3280=LINE('',#3250,#3270);
#3290=EDGE_CURVE('',#1980,#3070,#3280,.T.);
#3300=ORIENTED_EDGE('',*,*,#3290,.T.);
#3310=ORIENTED_EDGE('',*,*,#1990,.T.);
#3320=CARTESIAN_POINT('',(-2.5,41.,0.));
#3330=DIRECTION('',(0.,0.,-1.));
#3340=VECTOR('',#3330,1.);
#3350=LINE('',#3320,#3340);
#3360=EDGE_CURVE('',#2540,#1900,#3350,.T.);
#3370=ORIENTED_EDGE('',*,*,#3360,.T.);
#3380=EDGE_LOOP('',(#3370,#3310,#3300,#3240));
#3390=FACE_OUTER_BOUND('',#3380,.T.);
#3400=ADVANCED_FACE('',(#3390),#3230,.T.);
#3410=CARTESIAN_POINT('',(40.,-7.5,0.));
#3420=DIRECTION('',(-0.,-1.,-0.));
#3430=DIRECTION('',(-1.,0.,0.));
#3440=AXIS2_PLACEMENT_3D('',#3410,#3420,#3430);
#3450=PLANE('',#3440);
#3460=CARTESIAN_POINT('',(-1.,-7.5,0.));
#3470=DIRECTION('',(0.,0.,1.));
#3480=VECTOR('',#3470,1.);
#3490=LINE('',#3460,#3480);
#3500=EDGE_CURVE('',#1660,#2980,#3490,.T.);
#3510=ORIENTED_EDGE('',*,*,#3500,.F.);
#3520=ORIENTED_EDGE('',*,*,#2990,.F.);
#3530=CARTESIAN_POINT('',(21.,-7.5,0.));
#3540=DIRECTION('',(0.,0.,1.));
#3550=VECTOR('',#3540,1.);
#3560=LINE('',#3530,#3550);
#3570=EDGE_CURVE('',#1460,#2900,#3560,.T.);
#3580=ORIENTED_EDGE('',*,*,#3570,.T.);
#3590=ORIENTED_EDGE('',*,*,#1730,.T.);
#3600=EDGE_LOOP('',(#3590,#3580,#3520,#3510));
#3610=FACE_OUTER_BOUND('',#3600,.T.);
#3620=ADVANCED_FACE('',(#3610),#3450,.T.);
#3630=CARTESIAN_POINT('',(22.5,40.,0.));
#3640=DIRECTION('',(1.,0.,0.));
#3650=DIRECTION('',(0.,-1.,0.));
#3660=AXIS2_PLACEMENT_3D('',#3630,#3640,#3650);
#3670=PLANE('',#3660);
#3680=ORIENTED_EDGE('',*,*,#700,.T.);
#3690=CARTESIAN_POINT('',(22.5,-6.,0.));
#3700=DIRECTION('',(0.,0.,1.));
#3710=VECTOR('',#3700,1.);
#3720=LINE('',#3690,#3710);
#3730=EDGE_CURVE('',#610,#2810,#3720,.T.);
#3740=ORIENTED_EDGE('',*,*,#3730,.F.);
#3750=ORIENTED_EDGE('',*,*,#2820,.F.);
#3760=CARTESIAN_POINT('',(22.5,41.,0.));
#3770=DIRECTION('',(0.,0.,1.));
#3780=VECTOR('',#3770,1.);
#3790=LINE('',#3760,#3780);
#3800=EDGE_CURVE('',#690,#2730,#3790,.T.);
#3810=ORIENTED_EDGE('',*,*,#3800,.T.);
#3820=EDGE_LOOP('',(#3810,#3750,#3740,#3680));
#3830=FACE_OUTER_BOUND('',#3820,.T.);
#3840=ADVANCED_FACE('',(#3830),#3670,.T.);
#3850=CARTESIAN_POINT('',(0.,42.5,0.));
#3860=DIRECTION('',(-0.,1.,0.));
#3870=DIRECTION('',(1.,0.,0.));
#3880=AXIS2_PLACEMENT_3D('',#3850,#3860,#3870);
#3890=PLANE('',#3880);
#3900=ORIENTED_EDGE('',*,*,#1130,.T.);
#3910=CARTESIAN_POINT('',(21.,42.5,0.));
#3920=DIRECTION('',(0.,0.,1.));
#3930=VECTOR('',#3920,1.);
#3940=LINE('',#3910,#3930);
#3950=EDGE_CURVE('',#1040,#2640,#3940,.T.);
#3960=ORIENTED_EDGE('',*,*,#3950,.F.);
#3970=ORIENTED_EDGE('',*,*,#2650,.F.);
#3980=CARTESIAN_POINT('',(-1.,42.5,0.));
#3990=DIRECTION('',(0.,0.,-1.));
#4000=VECTOR('',#3990,1.);
#4010=LINE('',#3980,#4000);
#4020=EDGE_CURVE('',#2560,#1120,#4010,.T.);
#4030=ORIENTED_EDGE('',*,*,#4020,.F.);
#4040=EDGE_LOOP('',(#4030,#3970,#3960,#3900));
#4050=FACE_OUTER_BOUND('',#4040,.T.);
#4060=ADVANCED_FACE('',(#4050),#3890,.T.);
#4070=CARTESIAN_POINT('',(10.,0.,5.));
#4080=DIRECTION('',(0.,0.,1.));
#4090=DIRECTION('',(-1.,0.,0.));
#4100=AXIS2_PLACEMENT_3D('',#4070,#4080,#4090);
#4110=CYLINDRICAL_SURFACE('',#4100,3.4);
#4120=CARTESIAN_POINT('',(6.6,0.,5.));
#4130=DIRECTION('',(0.,0.,1.));
#4140=VECTOR('',#4130,1.);
#4150=LINE('',#4120,#4140);
#4160=CARTESIAN_POINT('',(6.6,0.,15.));
#4170=VERTEX_POINT('',#4160);
#4180=EDGE_CURVE('',#2390,#4170,#4150,.T.);
#4190=ORIENTED_EDGE('',*,*,#4180,.T.);
#4200=ORIENTED_EDGE('',*,*,#2440,.T.);
#4210=CARTESIAN_POINT('',(13.4,-4.163799117101E-16,5.));
#4220=DIRECTION('',(0.,0.,1.));
#4230=VECTOR('',#4220,1.);
#4240=LINE('',#4210,#4230);
#4250=CARTESIAN_POINT('',(13.4,-4.163799117101E-16,15.));
#4260=VERTEX_POINT('',#4250);
#4270=EDGE_CURVE('',#2410,#4260,#4240,.T.);
#4280=ORIENTED_EDGE('',*,*,#4270,.F.);
#4290=CARTESIAN_POINT('',(10.,0.,15.));
#4300=DIRECTION('',(0.,0.,1.));
#4310=DIRECTION('',(-1.,0.,0.));
#4320=AXIS2_PLACEMENT_3D('',#4290,#4300,#4310);
#4330=CIRCLE('',#4320,3.4);
#4340=EDGE_CURVE('',#4260,#4170,#4330,.T.);
#4350=ORIENTED_EDGE('',*,*,#4340,.F.);
#4360=EDGE_LOOP('',(#4350,#4280,#4200,#4190));
#4370=FACE_OUTER_BOUND('',#4360,.T.);
#4380=ADVANCED_FACE('',(#4370),#4110,.T.);
#4390=CARTESIAN_POINT('',(21.,41.,0.));
#4400=DIRECTION('',(0.,0.,1.));
#4410=DIRECTION('',(1.,0.,0.));
#4420=AXIS2_PLACEMENT_3D('',#4390,#4400,#4410);
#4430=CYLINDRICAL_SURFACE('',#4420,1.5);
#4440=ORIENTED_EDGE('',*,*,#2740,.F.);
#4450=ORIENTED_EDGE('',*,*,#3950,.T.);
#4460=ORIENTED_EDGE('',*,*,#1050,.T.);
#4470=ORIENTED_EDGE('',*,*,#790,.T.);
#4480=ORIENTED_EDGE('',*,*,#3800,.F.);
#4490=EDGE_LOOP('',(#4480,#4470,#4460,#4450,#4440));
#4500=FACE_OUTER_BOUND('',#4490,.T.);
#4510=ADVANCED_FACE('',(#4500),#4430,.T.);
#4520=CARTESIAN_POINT('',(35.,25.,15.));
#4530=DIRECTION('',(0.,0.,1.));
#4540=DIRECTION('',(-1.,0.,0.));
#4550=AXIS2_PLACEMENT_3D('',#4520,#4530,#4540);
#4560=PLANE('',#4550);
#4570=EDGE_CURVE('',#4170,#4260,#4330,.T.);
#4580=ORIENTED_EDGE('',*,*,#4570,.T.);
#4590=ORIENTED_EDGE('',*,*,#4340,.T.);
#4600=EDGE_LOOP('',(#4590,#4580));
#4610=FACE_OUTER_BOUND('',#4600,.T.);
#4620=ADVANCED_FACE('',(#4610),#4560,.T.);
#4630=CARTESIAN_POINT('',(21.,-6.,0.));
#4640=DIRECTION('',(0.,0.,1.));
#4650=DIRECTION('',(1.,0.,0.));
#4660=AXIS2_PLACEMENT_3D('',#4630,#4640,#4650);
#4670=CYLINDRICAL_SURFACE('',#4660,1.5);
#4680=ORIENTED_EDGE('',*,*,#2910,.F.);
#4690=ORIENTED_EDGE('',*,*,#3730,.T.);
#4700=ORIENTED_EDGE('',*,*,#620,.T.);
#4710=ORIENTED_EDGE('',*,*,#1470,.T.);
#4720=ORIENTED_EDGE('',*,*,#3570,.F.);
#4730=EDGE_LOOP('',(#4720,#4710,#4700,#4690,#4680));
#4740=FACE_OUTER_BOUND('',#4730,.T.);
#4750=ADVANCED_FACE('',(#4740),#4670,.T.);
#4760=CARTESIAN_POINT('',(35.,10.,15.));
#4770=DIRECTION('',(0.,0.,1.));
#4780=DIRECTION('',(-1.,0.,0.));
#4790=AXIS2_PLACEMENT_3D('',#4760,#4770,#4780);
#4800=PLANE('',#4790);
#4810=CARTESIAN_POINT('',(10.,35.,15.));
#4820=DIRECTION('',(0.,0.,1.));
#4830=DIRECTION('',(-1.,0.,0.));
#4840=AXIS2_PLACEMENT_3D('',#4810,#4820,#4830);
#4850=CIRCLE('',#4840,3.4);
#4860=CARTESIAN_POINT('',(6.6,35.,15.));
#4870=VERTEX_POINT('',#4860);
#4880=CARTESIAN_POINT('',(13.4,35.,15.));
#4890=VERTEX_POINT('',#4880);
#4900=EDGE_CURVE('',#4870,#4890,#4850,.T.);
#4910=ORIENTED_EDGE('',*,*,#4900,.T.);
#4920=EDGE_CURVE('',#4890,#4870,#4850,.T.);
#4930=ORIENTED_EDGE('',*,*,#4920,.T.);
#4940=EDGE_LOOP('',(#4930,#4910));
#4950=FACE_OUTER_BOUND('',#4940,.T.);
#4960=ADVANCED_FACE('',(#4950),#4800,.T.);
#4970=CARTESIAN_POINT('',(10.,35.,5.));
#4980=DIRECTION('',(0.,0.,1.));
#4990=DIRECTION('',(-1.,0.,0.));
#5000=AXIS2_PLACEMENT_3D('',#4970,#4980,#4990);
#5010=CYLINDRICAL_SURFACE('',#5000,3.4);
#5020=CARTESIAN_POINT('',(6.6,35.,5.));
#5030=DIRECTION('',(0.,0.,1.));
#5040=VECTOR('',#5030,1.);
#5050=LINE('',#5020,#5040);
#5060=EDGE_CURVE('',#2240,#4870,#5050,.T.);
#5070=ORIENTED_EDGE('',*,*,#5060,.T.);
#5080=ORIENTED_EDGE('',*,*,#2290,.T.);
#5090=CARTESIAN_POINT('',(13.4,35.,5.));
#5100=DIRECTION('',(0.,0.,1.));
#5110=VECTOR('',#5100,1.);
#5120=LINE('',#5090,#5110);
#5130=EDGE_CURVE('',#2260,#4890,#5120,.T.);
#5140=ORIENTED_EDGE('',*,*,#5130,.F.);
#5150=ORIENTED_EDGE('',*,*,#4920,.F.);
#5160=EDGE_LOOP('',(#5150,#5140,#5080,#5070));
#5170=FACE_OUTER_BOUND('',#5160,.T.);
#5180=ADVANCED_FACE('',(#5170),#5010,.T.);
#5190=CARTESIAN_POINT('',(-1.,-6.,0.));
#5200=DIRECTION('',(0.,0.,1.));
#5210=DIRECTION('',(1.,0.,0.));
#5220=AXIS2_PLACEMENT_3D('',#5190,#5200,#5210);
#5230=CYLINDRICAL_SURFACE('',#5220,1.5);
#5240=ORIENTED_EDGE('',*,*,#3080,.F.);
#5250=ORIENTED_EDGE('',*,*,#3500,.T.);
#5260=ORIENTED_EDGE('',*,*,#1670,.T.);
#5270=ORIENTED_EDGE('',*,*,#2060,.T.);
#5280=ORIENTED_EDGE('',*,*,#3290,.F.);
#5290=EDGE_LOOP('',(#5280,#5270,#5260,#5250,#5240));
#5300=FACE_OUTER_BOUND('',#5290,.T.);
#5310=ADVANCED_FACE('',(#5300),#5230,.T.);
#5320=CARTESIAN_POINT('',(-1.,41.,0.));
#5330=DIRECTION('',(0.,0.,-1.));
#5340=DIRECTION('',(-1.,0.,0.));
#5350=AXIS2_PLACEMENT_3D('',#5320,#5330,#5340);
#5360=CYLINDRICAL_SURFACE('',#5350,1.5);
#5370=ORIENTED_EDGE('',*,*,#1910,.F.);
#5380=ORIENTED_EDGE('',*,*,#1220,.F.);
#5390=ORIENTED_EDGE('',*,*,#4020,.T.);
#5400=ORIENTED_EDGE('',*,*,#2570,.T.);
#5410=ORIENTED_EDGE('',*,*,#3360,.F.);
#5420=EDGE_LOOP('',(#5410,#5400,#5390,#5380,#5370));
#5430=FACE_OUTER_BOUND('',#5420,.T.);
#5440=ADVANCED_FACE('',(#5430),#5360,.T.);
#5450=CARTESIAN_POINT('',(10.,35.,5.));
#5460=DIRECTION('',(0.,0.,1.));
#5470=DIRECTION('',(-1.,0.,0.));
#5480=AXIS2_PLACEMENT_3D('',#5450,#5460,#5470);
#5490=CYLINDRICAL_SURFACE('',#5480,3.4);
#5500=ORIENTED_EDGE('',*,*,#4900,.F.);
#5510=ORIENTED_EDGE('',*,*,#5130,.T.);
#5520=ORIENTED_EDGE('',*,*,#2270,.T.);
#5530=ORIENTED_EDGE('',*,*,#5060,.F.);
#5540=EDGE_LOOP('',(#5530,#5520,#5510,#5500));
#5550=FACE_OUTER_BOUND('',#5540,.T.);
#5560=ADVANCED_FACE('',(#5550),#5490,.T.);
#5570=CARTESIAN_POINT('',(10.,0.,5.));
#5580=DIRECTION('',(0.,0.,1.));
#5590=DIRECTION('',(-1.,0.,0.));
#5600=AXIS2_PLACEMENT_3D('',#5570,#5580,#5590);
#5610=CYLINDRICAL_SURFACE('',#5600,3.4);
#5620=ORIENTED_EDGE('',*,*,#4570,.F.);
#5630=ORIENTED_EDGE('',*,*,#4270,.T.);
#5640=ORIENTED_EDGE('',*,*,#2420,.T.);
#5650=ORIENTED_EDGE('',*,*,#4180,.F.);
#5660=EDGE_LOOP('',(#5650,#5640,#5630,#5620));
#5670=FACE_OUTER_BOUND('',#5660,.T.);
#5680=ADVANCED_FACE('',(#5670),#5610,.T.);
#5690=CLOSED_SHELL('',(#3400,#3620,#3840,#4060,#4380,#4510,#4620,#4750,
#4960,#5180,#5310,#5440,#5560,#5680,#3180,#400,#910,#1340,#1770,#2120));
#5700=MANIFOLD_SOLID_BREP('',#5690);
#5710=CARTESIAN_POINT('',(0.,0.,0.));
#5720=DIRECTION('',(0.,0.,1.));
#5730=DIRECTION('',(1.,0.,0.));
#5740=AXIS2_PLACEMENT_3D('',#5710,#5720,#5730);
#5750=APPLICATION_CONTEXT(' ');
#5760=APPLICATION_PROTOCOL_DEFINITION(' ','automotive_design',1998,#5750
);
#5770=PRODUCT_CONTEXT('',#5750,'mechanical');
#5780=PRODUCT_DEFINITION_CONTEXT('part definition',#5750,'design');
#5790=PRODUCT('Abdeckkappe-MMS-55_50x25x5_55.0306.3_PX176283',
'Abdeckkappe-MMS-55_50x25x5_55.0306.3_PX176283','',(#5770));
#5800=PRODUCT_RELATED_PRODUCT_CATEGORY('part',' ',(#5790));
#5810=PRODUCT_DEFINITION_FORMATION_WITH_SPECIFIED_SOURCE('','',#5790,
.BOUGHT.);
#5820=PRODUCT_DEFINITION('',' ',#5810,#5780);
#5830=PRODUCT_DEFINITION_SHAPE('','',#5820);
#5840=DIMENSIONAL_EXPONENTS(1.,0.,0.,0.,0.,0.,0.);
#5850=DIMENSIONAL_EXPONENTS(0.,0.,0.,0.,0.,0.,0.);
#5860=DIMENSIONAL_EXPONENTS(0.,0.,0.,0.,0.,0.,0.);
#5870=(LENGTH_UNIT() NAMED_UNIT(*) SI_UNIT(.MILLI.,.METRE.));
#5880=(NAMED_UNIT(*) PLANE_ANGLE_UNIT() SI_UNIT($,.RADIAN.));
#5890=(NAMED_UNIT(*) SI_UNIT($,.STERADIAN.) SOLID_ANGLE_UNIT());
#5900=(GEOMETRIC_REPRESENTATION_CONTEXT(3) 
GLOBAL_UNCERTAINTY_ASSIGNED_CONTEXT((#5910)) 
GLOBAL_UNIT_ASSIGNED_CONTEXT((#5870,#5880,#5890)) REPRESENTATION_CONTEXT
('',''));
#5910=UNCERTAINTY_MEASURE_WITH_UNIT(LENGTH_MEASURE(1.E-6),#5870,
'distance_accuracy_value','maximum gap value');
#5920=ADVANCED_BREP_SHAPE_REPRESENTATION('',(#5740,#5700),#5900);
#5930=SHAPE_DEFINITION_REPRESENTATION(#5830,#5920);
#5940=COLOUR_RGB('',0.0823529437184334,0.0862745121121407,
0.0980392247438431);
#5950=FILL_AREA_STYLE_COLOUR('',#5940);
#5960=FILL_AREA_STYLE('',(#5950));
#5970=SURFACE_STYLE_FILL_AREA(#5960);
#5980=SURFACE_SIDE_STYLE('',(#5970));
#5990=SURFACE_STYLE_USAGE(.BOTH.,#5980);
#6000=PRESENTATION_STYLE_ASSIGNMENT((#5990));
#6010=STYLED_ITEM('',(#6000),#5700);
#6020=DRAUGHTING_MODEL('',(#6010),#5900);
#6030=CARTESIAN_POINT('',(-4.89999999999998,40.,5.));
#6040=DIRECTION('',(0.,0.,-1.));
#6050=DIRECTION('',(1.,0.,0.));
#6060=AXIS2_PLACEMENT_3D('',#6030,#6040,#6050);
#6070=ITEM_DEFINED_TRANSFORMATION(
'Abdeckkappe-MMS-55_50x25x5_55.0306.3_PX176283','',#5740,#6060);
#6080=APPLICATION_CONTEXT(' ');
#6090=APPLICATION_PROTOCOL_DEFINITION(' ','automotive_design',1998,#6080
);
#6100=PRODUCT_CONTEXT('',#6080,'mechanical');
#6110=PRODUCT_DEFINITION_CONTEXT('part definition',#6080,'design');
#6120=PRODUCT('Abdeckkappe-MMS-55_50x25x5_55.0306.3_PX176283',
'Abdeckkappe-MMS-55_50x25x5_55.0306.3_PX176283','',(#6100));
#6130=PRODUCT_RELATED_PRODUCT_CATEGORY('part',' ',(#6120));
#6140=PRODUCT_DEFINITION_FORMATION_WITH_SPECIFIED_SOURCE('','',#6120,
.BOUGHT.);
#6150=PRODUCT_DEFINITION('',' ',#6140,#6110);
#6160=PRODUCT_DEFINITION_SHAPE('','',#6150);
#6170=DIMENSIONAL_EXPONENTS(1.,0.,0.,0.,0.,0.,0.);
#6180=DIMENSIONAL_EXPONENTS(0.,0.,0.,0.,0.,0.,0.);
#6190=DIMENSIONAL_EXPONENTS(0.,0.,0.,0.,0.,0.,0.);
#6200=(LENGTH_UNIT() NAMED_UNIT(*) SI_UNIT(.MILLI.,.METRE.));
#6210=(NAMED_UNIT(*) PLANE_ANGLE_UNIT() SI_UNIT($,.RADIAN.));
#6220=(NAMED_UNIT(*) SI_UNIT($,.STERADIAN.) SOLID_ANGLE_UNIT());
#6230=(GEOMETRIC_REPRESENTATION_CONTEXT(3) 
GLOBAL_UNCERTAINTY_ASSIGNED_CONTEXT((#6240)) 
GLOBAL_UNIT_ASSIGNED_CONTEXT((#6200,#6210,#6220)) REPRESENTATION_CONTEXT
('',''));
#6240=UNCERTAINTY_MEASURE_WITH_UNIT(LENGTH_MEASURE(1.E-6),#6200,
'distance_accuracy_value','maximum gap value');
#6250=SHAPE_REPRESENTATION('',(#5740,#6060),#6230);
#6260=SHAPE_DEFINITION_REPRESENTATION(#6160,#6250);
#6270=(REPRESENTATION_RELATIONSHIP('','',#5920,#6250) 
REPRESENTATION_RELATIONSHIP_WITH_TRANSFORMATION(#6070) 
SHAPE_REPRESENTATION_RELATIONSHIP());
#6280=NEXT_ASSEMBLY_USAGE_OCCURRENCE('1','',
'Abdeckkappe-MMS-55_50x25x5_55.0306.3_PX176283',#6150,#5820,'');
#6290=PRODUCT_DEFINITION_SHAPE('','',#6280);
#6300=CONTEXT_DEPENDENT_SHAPE_REPRESENTATION(#6270,#6290);
ENDSEC;
END-ISO-10303-21;
