ISO-10303-21;
HEADER;
FILE_DESCRIPTION(('Creo Elements/Direct Modeling STEP Export'),'2;1');
FILE_NAME(
'//KR-CAD2/PhoenixTemp/karl.letzgus/Konvertierung/55.0321.1_Seitenf\S\|h
rungsprofil-Flach-MMS-55_48x10mm-schwarz-leitf\S\dhig.stp',
'2022-03-21T 8:08:34',(''),(''),
'PTC Creo Elements/Direct Modeling STEP processor for AP214 (Solid Model
)',
'PTC Creo Elements/Direct Modeling 19.0C  15-Aug-2015 (C) Parametric Tec
hnology GmbH','');
FILE_SCHEMA(('AUTOMOTIVE_DESIGN { 1 0 10303 214 1 1 1 1 }'));
ENDSEC;
DATA;
#10=CARTESIAN_POINT('',(0.,0.,180.));
#20=DIRECTION('',(0.,0.,1.));
#30=DIRECTION('',(1.,0.,0.));
#40=AXIS2_PLACEMENT_3D('',#10,#20,#30);
#50=PLANE('',#40);
#60=CARTESIAN_POINT('',(-29.171506,5.45796300000001,180.));
#70=DIRECTION('',(0.,0.,-1.));
#80=DIRECTION('',(-1.,0.,0.));
#90=AXIS2_PLACEMENT_3D('',#60,#70,#80);
#100=CIRCLE('',#90,1.5);
#110=CARTESIAN_POINT('',(-30.671506,5.45796300000001,180.));
#120=VERTEX_POINT('',#110);
#130=CARTESIAN_POINT('',(-29.171506,6.95796300000001,180.));
#140=VERTEX_POINT('',#130);
#150=EDGE_CURVE('',#120,#140,#100,.T.);
#160=ORIENTED_EDGE('',*,*,#150,.T.);
#170=CARTESIAN_POINT('',(-30.671506,0.,180.));
#180=DIRECTION('',(0.,-1.,0.));
#190=VECTOR('',#180,1.);
#200=LINE('',#170,#190);
#210=CARTESIAN_POINT('',(-30.671506,-3.042037,180.));
#220=VERTEX_POINT('',#210);
#230=EDGE_CURVE('',#120,#220,#200,.T.);
#240=ORIENTED_EDGE('',*,*,#230,.F.);
#250=CARTESIAN_POINT('',(-7.171506,-3.042037,180.));
#260=DIRECTION('',(1.,0.,0.));
#270=VECTOR('',#260,1.);
#280=LINE('',#250,#270);
#290=CARTESIAN_POINT('',(-12.171506,-3.042037,180.));
#300=VERTEX_POINT('',#290);
#310=EDGE_CURVE('',#220,#300,#280,.T.);
#320=ORIENTED_EDGE('',*,*,#310,.F.);
#330=CARTESIAN_POINT('',(-12.171506,-3.042037,180.));
#340=DIRECTION('',(0.,1.,0.));
#350=VECTOR('',#340,1.);
#360=LINE('',#330,#350);
#370=CARTESIAN_POINT('',(-12.171506,-6.54203700000006,180.));
#380=VERTEX_POINT('',#370);
#390=EDGE_CURVE('',#380,#300,#360,.T.);
#400=ORIENTED_EDGE('',*,*,#390,.T.);
#410=CARTESIAN_POINT('',(-7.171506,-6.54203700000006,180.));
#420=DIRECTION('',(1.,0.,0.));
#430=VECTOR('',#420,1.);
#440=LINE('',#410,#430);
#450=CARTESIAN_POINT('',(-17.171506,-6.54203700000006,180.));
#460=VERTEX_POINT('',#450);
#470=EDGE_CURVE('',#460,#380,#440,.T.);
#480=ORIENTED_EDGE('',*,*,#470,.T.);
#490=CARTESIAN_POINT('',(-17.171506,-6.54203700000006,180.));
#500=DIRECTION('',(0.,-1.,0.));
#510=VECTOR('',#500,1.);
#520=LINE('',#490,#510);
#530=CARTESIAN_POINT('',(-17.171506,-13.042037,180.));
#540=VERTEX_POINT('',#530);
#550=EDGE_CURVE('',#460,#540,#520,.T.);
#560=ORIENTED_EDGE('',*,*,#550,.F.);
#570=CARTESIAN_POINT('',(-7.171506,-13.042037,180.));
#580=DIRECTION('',(-1.,0.,0.));
#590=VECTOR('',#580,1.);
#600=LINE('',#570,#590);
#610=CARTESIAN_POINT('',(2.82849400000003,-13.042037,180.));
#620=VERTEX_POINT('',#610);
#630=EDGE_CURVE('',#620,#540,#600,.T.);
#640=ORIENTED_EDGE('',*,*,#630,.T.);
#650=CARTESIAN_POINT('',(2.82849400000003,-13.042037,180.));
#660=DIRECTION('',(0.,1.,0.));
#670=VECTOR('',#660,1.);
#680=LINE('',#650,#670);
#690=CARTESIAN_POINT('',(2.82849400000003,-6.54203699999997,180.));
#700=VERTEX_POINT('',#690);
#710=EDGE_CURVE('',#620,#700,#680,.T.);
#720=ORIENTED_EDGE('',*,*,#710,.F.);
#730=CARTESIAN_POINT('',(-7.171506,-6.54203699999997,180.));
#740=DIRECTION('',(1.,0.,0.));
#750=VECTOR('',#740,1.);
#760=LINE('',#730,#750);
#770=CARTESIAN_POINT('',(-2.17150599999997,-6.54203699999997,180.));
#780=VERTEX_POINT('',#770);
#790=EDGE_CURVE('',#780,#700,#760,.T.);
#800=ORIENTED_EDGE('',*,*,#790,.T.);
#810=CARTESIAN_POINT('',(-2.17150599999997,-3.042037,180.));
#820=DIRECTION('',(0.,-1.,0.));
#830=VECTOR('',#820,1.);
#840=LINE('',#810,#830);
#850=CARTESIAN_POINT('',(-2.17150599999997,-3.042037,180.));
#860=VERTEX_POINT('',#850);
#870=EDGE_CURVE('',#860,#780,#840,.T.);
#880=ORIENTED_EDGE('',*,*,#870,.T.);
#890=CARTESIAN_POINT('',(-7.171506,-3.042037,180.));
#900=DIRECTION('',(1.,0.,0.));
#910=VECTOR('',#900,1.);
#920=LINE('',#890,#910);
#930=CARTESIAN_POINT('',(16.328494,-3.042037,180.));
#940=VERTEX_POINT('',#930);
#950=EDGE_CURVE('',#860,#940,#920,.T.);
#960=ORIENTED_EDGE('',*,*,#950,.F.);
#970=CARTESIAN_POINT('',(16.328494,0.,180.));
#980=DIRECTION('',(0.,1.,0.));
#990=VECTOR('',#980,1.);
#1000=LINE('',#970,#990);
#1010=CARTESIAN_POINT('',(16.328494,5.45796300000001,180.));
#1020=VERTEX_POINT('',#1010);
#1030=EDGE_CURVE('',#940,#1020,#1000,.T.);
#1040=ORIENTED_EDGE('',*,*,#1030,.F.);
#1050=CARTESIAN_POINT('',(14.828494,5.45796300000001,180.));
#1060=DIRECTION('',(0.,0.,-1.));
#1070=DIRECTION('',(-1.,0.,0.));
#1080=AXIS2_PLACEMENT_3D('',#1050,#1060,#1070);
#1090=CIRCLE('',#1080,1.5);
#1100=CARTESIAN_POINT('',(14.828494,6.95796300000001,180.));
#1110=VERTEX_POINT('',#1100);
#1120=EDGE_CURVE('',#1110,#1020,#1090,.T.);
#1130=ORIENTED_EDGE('',*,*,#1120,.T.);
#1140=CARTESIAN_POINT('',(0.,6.95796300000001,180.));
#1150=DIRECTION('',(-1.,0.,0.));
#1160=VECTOR('',#1150,1.);
#1170=LINE('',#1140,#1160);
#1180=EDGE_CURVE('',#1110,#140,#1170,.T.);
#1190=ORIENTED_EDGE('',*,*,#1180,.F.);
#1200=EDGE_LOOP('',(#1190,#1130,#1040,#960,#880,#800,#720,#640,#560,#480
,#400,#320,#240,#160));
#1210=FACE_OUTER_BOUND('',#1200,.T.);
#1220=ADVANCED_FACE('',(#1210),#50,.F.);
#1230=CARTESIAN_POINT('',(0.,0.,280.));
#1240=DIRECTION('',(0.,0.,1.));
#1250=DIRECTION('',(1.,0.,0.));
#1260=AXIS2_PLACEMENT_3D('',#1230,#1240,#1250);
#1270=PLANE('',#1260);
#1280=CARTESIAN_POINT('',(-29.171506,5.45796300000001,280.));
#1290=DIRECTION('',(0.,0.,-1.));
#1300=DIRECTION('',(-1.,0.,0.));
#1310=AXIS2_PLACEMENT_3D('',#1280,#1290,#1300);
#1320=CIRCLE('',#1310,1.5);
#1330=CARTESIAN_POINT('',(-30.671506,5.45796300000001,280.));
#1340=VERTEX_POINT('',#1330);
#1350=CARTESIAN_POINT('',(-29.171506,6.95796300000001,280.));
#1360=VERTEX_POINT('',#1350);
#1370=EDGE_CURVE('',#1340,#1360,#1320,.T.);
#1380=ORIENTED_EDGE('',*,*,#1370,.F.);
#1390=CARTESIAN_POINT('',(0.,6.95796300000001,280.));
#1400=DIRECTION('',(-1.,0.,0.));
#1410=VECTOR('',#1400,1.);
#1420=LINE('',#1390,#1410);
#1430=CARTESIAN_POINT('',(14.828494,6.95796300000001,280.));
#1440=VERTEX_POINT('',#1430);
#1450=EDGE_CURVE('',#1440,#1360,#1420,.T.);
#1460=ORIENTED_EDGE('',*,*,#1450,.T.);
#1470=CARTESIAN_POINT('',(14.828494,5.45796300000001,280.));
#1480=DIRECTION('',(0.,0.,-1.));
#1490=DIRECTION('',(-1.,0.,0.));
#1500=AXIS2_PLACEMENT_3D('',#1470,#1480,#1490);
#1510=CIRCLE('',#1500,1.5);
#1520=CARTESIAN_POINT('',(16.328494,5.45796300000001,280.));
#1530=VERTEX_POINT('',#1520);
#1540=EDGE_CURVE('',#1440,#1530,#1510,.T.);
#1550=ORIENTED_EDGE('',*,*,#1540,.F.);
#1560=CARTESIAN_POINT('',(16.328494,0.,280.));
#1570=DIRECTION('',(0.,1.,0.));
#1580=VECTOR('',#1570,1.);
#1590=LINE('',#1560,#1580);
#1600=CARTESIAN_POINT('',(16.328494,-3.042037,280.));
#1610=VERTEX_POINT('',#1600);
#1620=EDGE_CURVE('',#1610,#1530,#1590,.T.);
#1630=ORIENTED_EDGE('',*,*,#1620,.T.);
#1640=CARTESIAN_POINT('',(-7.171506,-3.042037,280.));
#1650=DIRECTION('',(1.,0.,0.));
#1660=VECTOR('',#1650,1.);
#1670=LINE('',#1640,#1660);
#1680=CARTESIAN_POINT('',(-2.17150599999997,-3.042037,280.));
#1690=VERTEX_POINT('',#1680);
#1700=EDGE_CURVE('',#1690,#1610,#1670,.T.);
#1710=ORIENTED_EDGE('',*,*,#1700,.T.);
#1720=CARTESIAN_POINT('',(-2.17150599999997,-3.042037,280.));
#1730=DIRECTION('',(0.,-1.,0.));
#1740=VECTOR('',#1730,1.);
#1750=LINE('',#1720,#1740);
#1760=CARTESIAN_POINT('',(-2.17150599999997,-6.54203699999997,280.));
#1770=VERTEX_POINT('',#1760);
#1780=EDGE_CURVE('',#1690,#1770,#1750,.T.);
#1790=ORIENTED_EDGE('',*,*,#1780,.F.);
#1800=CARTESIAN_POINT('',(-7.171506,-6.54203699999997,280.));
#1810=DIRECTION('',(1.,0.,0.));
#1820=VECTOR('',#1810,1.);
#1830=LINE('',#1800,#1820);
#1840=CARTESIAN_POINT('',(2.82849400000003,-6.54203699999997,280.));
#1850=VERTEX_POINT('',#1840);
#1860=EDGE_CURVE('',#1770,#1850,#1830,.T.);
#1870=ORIENTED_EDGE('',*,*,#1860,.F.);
#1880=CARTESIAN_POINT('',(2.82849400000003,-13.042037,280.));
#1890=DIRECTION('',(0.,1.,0.));
#1900=VECTOR('',#1890,1.);
#1910=LINE('',#1880,#1900);
#1920=CARTESIAN_POINT('',(2.82849400000003,-13.042037,280.));
#1930=VERTEX_POINT('',#1920);
#1940=EDGE_CURVE('',#1930,#1850,#1910,.T.);
#1950=ORIENTED_EDGE('',*,*,#1940,.T.);
#1960=CARTESIAN_POINT('',(-7.171506,-13.042037,280.));
#1970=DIRECTION('',(-1.,0.,0.));
#1980=VECTOR('',#1970,1.);
#1990=LINE('',#1960,#1980);
#2000=CARTESIAN_POINT('',(-17.171506,-13.042037,280.));
#2010=VERTEX_POINT('',#2000);
#2020=EDGE_CURVE('',#1930,#2010,#1990,.T.);
#2030=ORIENTED_EDGE('',*,*,#2020,.F.);
#2040=CARTESIAN_POINT('',(-17.171506,-6.54203700000006,280.));
#2050=DIRECTION('',(0.,-1.,0.));
#2060=VECTOR('',#2050,1.);
#2070=LINE('',#2040,#2060);
#2080=CARTESIAN_POINT('',(-17.171506,-6.54203700000006,280.));
#2090=VERTEX_POINT('',#2080);
#2100=EDGE_CURVE('',#2090,#2010,#2070,.T.);
#2110=ORIENTED_EDGE('',*,*,#2100,.T.);
#2120=CARTESIAN_POINT('',(-7.171506,-6.54203700000006,280.));
#2130=DIRECTION('',(1.,0.,0.));
#2140=VECTOR('',#2130,1.);
#2150=LINE('',#2120,#2140);
#2160=CARTESIAN_POINT('',(-12.171506,-6.54203700000006,280.));
#2170=VERTEX_POINT('',#2160);
#2180=EDGE_CURVE('',#2090,#2170,#2150,.T.);
#2190=ORIENTED_EDGE('',*,*,#2180,.F.);
#2200=CARTESIAN_POINT('',(-12.171506,-3.042037,280.));
#2210=DIRECTION('',(0.,1.,0.));
#2220=VECTOR('',#2210,1.);
#2230=LINE('',#2200,#2220);
#2240=CARTESIAN_POINT('',(-12.171506,-3.042037,280.));
#2250=VERTEX_POINT('',#2240);
#2260=EDGE_CURVE('',#2170,#2250,#2230,.T.);
#2270=ORIENTED_EDGE('',*,*,#2260,.F.);
#2280=CARTESIAN_POINT('',(-7.171506,-3.042037,280.));
#2290=DIRECTION('',(1.,0.,0.));
#2300=VECTOR('',#2290,1.);
#2310=LINE('',#2280,#2300);
#2320=CARTESIAN_POINT('',(-30.671506,-3.042037,280.));
#2330=VERTEX_POINT('',#2320);
#2340=EDGE_CURVE('',#2330,#2250,#2310,.T.);
#2350=ORIENTED_EDGE('',*,*,#2340,.T.);
#2360=CARTESIAN_POINT('',(-30.671506,0.,280.));
#2370=DIRECTION('',(0.,-1.,0.));
#2380=VECTOR('',#2370,1.);
#2390=LINE('',#2360,#2380);
#2400=EDGE_CURVE('',#1340,#2330,#2390,.T.);
#2410=ORIENTED_EDGE('',*,*,#2400,.T.);
#2420=EDGE_LOOP('',(#2410,#2350,#2270,#2190,#2110,#2030,#1950,#1870,
#1790,#1710,#1630,#1550,#1460,#1380));
#2430=FACE_OUTER_BOUND('',#2420,.T.);
#2440=ADVANCED_FACE('',(#2430),#1270,.T.);
#2450=CARTESIAN_POINT('',(-12.171506,-6.54203700000006,0.));
#2460=DIRECTION('',(-1.,0.,0.));
#2470=DIRECTION('',(0.,1.,0.));
#2480=AXIS2_PLACEMENT_3D('',#2450,#2460,#2470);
#2490=PLANE('',#2480);
#2500=CARTESIAN_POINT('',(-12.171506,-3.042037,0.));
#2510=DIRECTION('',(0.,0.,1.));
#2520=VECTOR('',#2510,1.);
#2530=LINE('',#2500,#2520);
#2540=EDGE_CURVE('',#300,#2250,#2530,.T.);
#2550=ORIENTED_EDGE('',*,*,#2540,.F.);
#2560=ORIENTED_EDGE('',*,*,#2260,.T.);
#2570=CARTESIAN_POINT('',(-12.171506,-6.54203700000006,0.));
#2580=DIRECTION('',(0.,0.,1.));
#2590=VECTOR('',#2580,1.);
#2600=LINE('',#2570,#2590);
#2610=EDGE_CURVE('',#380,#2170,#2600,.T.);
#2620=ORIENTED_EDGE('',*,*,#2610,.T.);
#2630=ORIENTED_EDGE('',*,*,#390,.F.);
#2640=EDGE_LOOP('',(#2630,#2620,#2560,#2550));
#2650=FACE_OUTER_BOUND('',#2640,.T.);
#2660=ADVANCED_FACE('',(#2650),#2490,.T.);
#2670=CARTESIAN_POINT('',(-16.671506,-6.54203700000006,0.));
#2680=DIRECTION('',(-0.,1.,0.));
#2690=DIRECTION('',(1.,0.,0.));
#2700=AXIS2_PLACEMENT_3D('',#2670,#2680,#2690);
#2710=PLANE('',#2700);
#2720=ORIENTED_EDGE('',*,*,#2610,.F.);
#2730=ORIENTED_EDGE('',*,*,#2180,.T.);
#2740=CARTESIAN_POINT('',(-17.171506,-6.54203700000006,0.));
#2750=DIRECTION('',(0.,0.,1.));
#2760=VECTOR('',#2750,1.);
#2770=LINE('',#2740,#2760);
#2780=EDGE_CURVE('',#460,#2090,#2770,.T.);
#2790=ORIENTED_EDGE('',*,*,#2780,.T.);
#2800=ORIENTED_EDGE('',*,*,#470,.F.);
#2810=EDGE_LOOP('',(#2800,#2790,#2730,#2720));
#2820=FACE_OUTER_BOUND('',#2810,.T.);
#2830=ADVANCED_FACE('',(#2820),#2710,.T.);
#2840=CARTESIAN_POINT('',(-29.171506,5.45796300000001,0.));
#2850=DIRECTION('',(0.,0.,-1.));
#2860=DIRECTION('',(-1.,0.,0.));
#2870=AXIS2_PLACEMENT_3D('',#2840,#2850,#2860);
#2880=CYLINDRICAL_SURFACE('',#2870,1.5);
#2890=ORIENTED_EDGE('',*,*,#150,.F.);
#2900=CARTESIAN_POINT('',(-29.171506,6.95796300000001,0.));
#2910=DIRECTION('',(0.,0.,-1.));
#2920=VECTOR('',#2910,1.);
#2930=LINE('',#2900,#2920);
#2940=EDGE_CURVE('',#1360,#140,#2930,.T.);
#2950=ORIENTED_EDGE('',*,*,#2940,.T.);
#2960=ORIENTED_EDGE('',*,*,#1370,.T.);
#2970=CARTESIAN_POINT('',(-30.671506,5.45796300000001,0.));
#2980=DIRECTION('',(0.,0.,-1.));
#2990=VECTOR('',#2980,1.);
#3000=LINE('',#2970,#2990);
#3010=EDGE_CURVE('',#1340,#120,#3000,.T.);
#3020=ORIENTED_EDGE('',*,*,#3010,.F.);
#3030=EDGE_LOOP('',(#3020,#2960,#2950,#2890));
#3040=FACE_OUTER_BOUND('',#3030,.T.);
#3050=ADVANCED_FACE('',(#3040),#2880,.T.);
#3060=CARTESIAN_POINT('',(-1.42428274973253,-13.042037,0.));
#3070=DIRECTION('',(-0.,-1.,-0.));
#3080=DIRECTION('',(-1.,0.,0.));
#3090=AXIS2_PLACEMENT_3D('',#3060,#3070,#3080);
#3100=PLANE('',#3090);
#3110=CARTESIAN_POINT('',(-17.171506,-13.042037,280.));
#3120=DIRECTION('',(0.,0.,-1.));
#3130=VECTOR('',#3120,1.);
#3140=LINE('',#3110,#3130);
#3150=EDGE_CURVE('',#2010,#540,#3140,.T.);
#3160=ORIENTED_EDGE('',*,*,#3150,.T.);
#3170=ORIENTED_EDGE('',*,*,#2020,.T.);
#3180=CARTESIAN_POINT('',(2.82849400000003,-13.042037,280.));
#3190=DIRECTION('',(0.,0.,-1.));
#3200=VECTOR('',#3190,1.);
#3210=LINE('',#3180,#3200);
#3220=EDGE_CURVE('',#1930,#620,#3210,.T.);
#3230=ORIENTED_EDGE('',*,*,#3220,.F.);
#3240=ORIENTED_EDGE('',*,*,#630,.F.);
#3250=EDGE_LOOP('',(#3240,#3230,#3170,#3160));
#3260=FACE_OUTER_BOUND('',#3250,.T.);
#3270=ADVANCED_FACE('',(#3260),#3100,.T.);
#3280=CARTESIAN_POINT('',(14.828494,5.45796300000001,0.));
#3290=DIRECTION('',(0.,0.,-1.));
#3300=DIRECTION('',(-1.,0.,0.));
#3310=AXIS2_PLACEMENT_3D('',#3280,#3290,#3300);
#3320=CYLINDRICAL_SURFACE('',#3310,1.5);
#3330=ORIENTED_EDGE('',*,*,#1120,.F.);
#3340=CARTESIAN_POINT('',(16.328494,5.45796300000001,0.));
#3350=DIRECTION('',(0.,0.,-1.));
#3360=VECTOR('',#3350,1.);
#3370=LINE('',#3340,#3360);
#3380=EDGE_CURVE('',#1530,#1020,#3370,.T.);
#3390=ORIENTED_EDGE('',*,*,#3380,.T.);
#3400=ORIENTED_EDGE('',*,*,#1540,.T.);
#3410=CARTESIAN_POINT('',(14.828494,6.95796300000001,0.));
#3420=DIRECTION('',(0.,0.,-1.));
#3430=VECTOR('',#3420,1.);
#3440=LINE('',#3410,#3430);
#3450=EDGE_CURVE('',#1440,#1110,#3440,.T.);
#3460=ORIENTED_EDGE('',*,*,#3450,.F.);
#3470=EDGE_LOOP('',(#3460,#3400,#3390,#3330));
#3480=FACE_OUTER_BOUND('',#3470,.T.);
#3490=ADVANCED_FACE('',(#3480),#3320,.T.);
#3500=CARTESIAN_POINT('',(-2.27150600000002,-6.54203699999997,0.));
#3510=DIRECTION('',(-0.,1.,0.));
#3520=DIRECTION('',(1.,0.,0.));
#3530=AXIS2_PLACEMENT_3D('',#3500,#3510,#3520);
#3540=PLANE('',#3530);
#3550=CARTESIAN_POINT('',(2.82849400000003,-6.54203699999997,0.));
#3560=DIRECTION('',(0.,0.,-1.));
#3570=VECTOR('',#3560,1.);
#3580=LINE('',#3550,#3570);
#3590=EDGE_CURVE('',#1850,#700,#3580,.T.);
#3600=ORIENTED_EDGE('',*,*,#3590,.T.);
#3610=ORIENTED_EDGE('',*,*,#1860,.T.);
#3620=CARTESIAN_POINT('',(-2.17150599999997,-6.54203699999997,0.));
#3630=DIRECTION('',(0.,0.,1.));
#3640=VECTOR('',#3630,1.);
#3650=LINE('',#3620,#3640);
#3660=EDGE_CURVE('',#780,#1770,#3650,.T.);
#3670=ORIENTED_EDGE('',*,*,#3660,.T.);
#3680=ORIENTED_EDGE('',*,*,#790,.F.);
#3690=EDGE_LOOP('',(#3680,#3670,#3610,#3600));
#3700=FACE_OUTER_BOUND('',#3690,.T.);
#3710=ADVANCED_FACE('',(#3700),#3540,.T.);
#3720=CARTESIAN_POINT('',(-2.17150599999997,-3.042037,0.));
#3730=DIRECTION('',(1.,0.,0.));
#3740=DIRECTION('',(0.,-1.,0.));
#3750=AXIS2_PLACEMENT_3D('',#3720,#3730,#3740);
#3760=PLANE('',#3750);
#3770=ORIENTED_EDGE('',*,*,#3660,.F.);
#3780=ORIENTED_EDGE('',*,*,#1780,.T.);
#3790=CARTESIAN_POINT('',(-2.17150599999997,-3.042037,0.));
#3800=DIRECTION('',(0.,0.,1.));
#3810=VECTOR('',#3800,1.);
#3820=LINE('',#3790,#3810);
#3830=EDGE_CURVE('',#860,#1690,#3820,.T.);
#3840=ORIENTED_EDGE('',*,*,#3830,.T.);
#3850=ORIENTED_EDGE('',*,*,#870,.F.);
#3860=EDGE_LOOP('',(#3850,#3840,#3780,#3770));
#3870=FACE_OUTER_BOUND('',#3860,.T.);
#3880=ADVANCED_FACE('',(#3870),#3760,.T.);
#3890=CARTESIAN_POINT('',(16.828494,-3.042037,0.));
#3900=DIRECTION('',(-0.,-1.,-0.));
#3910=DIRECTION('',(-1.,0.,0.));
#3920=AXIS2_PLACEMENT_3D('',#3890,#3900,#3910);
#3930=PLANE('',#3920);
#3940=ORIENTED_EDGE('',*,*,#3830,.F.);
#3950=ORIENTED_EDGE('',*,*,#1700,.F.);
#3960=CARTESIAN_POINT('',(16.328494,-3.042037,0.));
#3970=DIRECTION('',(0.,0.,1.));
#3980=VECTOR('',#3970,1.);
#3990=LINE('',#3960,#3980);
#4000=EDGE_CURVE('',#940,#1610,#3990,.T.);
#4010=ORIENTED_EDGE('',*,*,#4000,.T.);
#4020=ORIENTED_EDGE('',*,*,#950,.T.);
#4030=EDGE_LOOP('',(#4020,#4010,#3950,#3940));
#4040=FACE_OUTER_BOUND('',#4030,.T.);
#4050=ADVANCED_FACE('',(#4040),#3930,.T.);
#4060=CARTESIAN_POINT('',(16.328494,5.957963,0.));
#4070=DIRECTION('',(1.,0.,0.));
#4080=DIRECTION('',(0.,-1.,0.));
#4090=AXIS2_PLACEMENT_3D('',#4060,#4070,#4080);
#4100=PLANE('',#4090);
#4110=ORIENTED_EDGE('',*,*,#1030,.T.);
#4120=ORIENTED_EDGE('',*,*,#4000,.F.);
#4130=ORIENTED_EDGE('',*,*,#1620,.F.);
#4140=ORIENTED_EDGE('',*,*,#3380,.F.);
#4150=EDGE_LOOP('',(#4140,#4130,#4120,#4110));
#4160=FACE_OUTER_BOUND('',#4150,.T.);
#4170=ADVANCED_FACE('',(#4160),#4100,.T.);
#4180=CARTESIAN_POINT('',(-12.071506,-3.042037,0.));
#4190=DIRECTION('',(-0.,-1.,-0.));
#4200=DIRECTION('',(-1.,0.,0.));
#4210=AXIS2_PLACEMENT_3D('',#4180,#4190,#4200);
#4220=PLANE('',#4210);
#4230=CARTESIAN_POINT('',(-30.671506,-3.042037,0.));
#4240=DIRECTION('',(0.,0.,1.));
#4250=VECTOR('',#4240,1.);
#4260=LINE('',#4230,#4250);
#4270=EDGE_CURVE('',#220,#2330,#4260,.T.);
#4280=ORIENTED_EDGE('',*,*,#4270,.F.);
#4290=ORIENTED_EDGE('',*,*,#2340,.F.);
#4300=ORIENTED_EDGE('',*,*,#2540,.T.);
#4310=ORIENTED_EDGE('',*,*,#310,.T.);
#4320=EDGE_LOOP('',(#4310,#4300,#4290,#4280));
#4330=FACE_OUTER_BOUND('',#4320,.T.);
#4340=ADVANCED_FACE('',(#4330),#4220,.T.);
#4350=CARTESIAN_POINT('',(-30.171506,6.95796300000001,0.));
#4360=DIRECTION('',(-0.,1.,0.));
#4370=DIRECTION('',(1.,0.,0.));
#4380=AXIS2_PLACEMENT_3D('',#4350,#4360,#4370);
#4390=PLANE('',#4380);
#4400=ORIENTED_EDGE('',*,*,#1450,.F.);
#4410=ORIENTED_EDGE('',*,*,#2940,.F.);
#4420=ORIENTED_EDGE('',*,*,#1180,.T.);
#4430=ORIENTED_EDGE('',*,*,#3450,.T.);
#4440=EDGE_LOOP('',(#4430,#4420,#4410,#4400));
#4450=FACE_OUTER_BOUND('',#4440,.T.);
#4460=ADVANCED_FACE('',(#4450),#4390,.T.);
#4470=CARTESIAN_POINT('',(-30.671506,-3.042037,0.));
#4480=DIRECTION('',(-1.,0.,0.));
#4490=DIRECTION('',(0.,1.,0.));
#4500=AXIS2_PLACEMENT_3D('',#4470,#4480,#4490);
#4510=PLANE('',#4500);
#4520=ORIENTED_EDGE('',*,*,#2400,.F.);
#4530=ORIENTED_EDGE('',*,*,#4270,.T.);
#4540=ORIENTED_EDGE('',*,*,#230,.T.);
#4550=ORIENTED_EDGE('',*,*,#3010,.T.);
#4560=EDGE_LOOP('',(#4550,#4540,#4530,#4520));
#4570=FACE_OUTER_BOUND('',#4560,.T.);
#4580=ADVANCED_FACE('',(#4570),#4510,.T.);
#4590=CARTESIAN_POINT('',(-17.171506,-13.042037,280.));
#4600=DIRECTION('',(1.,0.,0.));
#4610=DIRECTION('',(0.,-1.,0.));
#4620=AXIS2_PLACEMENT_3D('',#4590,#4600,#4610);
#4630=PLANE('',#4620);
#4640=ORIENTED_EDGE('',*,*,#2100,.F.);
#4650=ORIENTED_EDGE('',*,*,#3150,.F.);
#4660=ORIENTED_EDGE('',*,*,#550,.T.);
#4670=ORIENTED_EDGE('',*,*,#2780,.F.);
#4680=EDGE_LOOP('',(#4670,#4660,#4650,#4640));
#4690=FACE_OUTER_BOUND('',#4680,.T.);
#4700=ADVANCED_FACE('',(#4690),#4630,.F.);
#4710=CARTESIAN_POINT('',(2.82849400000003,-6.54203699999997,280.));
#4720=DIRECTION('',(-1.,0.,0.));
#4730=DIRECTION('',(0.,1.,0.));
#4740=AXIS2_PLACEMENT_3D('',#4710,#4720,#4730);
#4750=PLANE('',#4740);
#4760=ORIENTED_EDGE('',*,*,#1940,.F.);
#4770=ORIENTED_EDGE('',*,*,#3590,.F.);
#4780=ORIENTED_EDGE('',*,*,#710,.T.);
#4790=ORIENTED_EDGE('',*,*,#3220,.T.);
#4800=EDGE_LOOP('',(#4790,#4780,#4770,#4760));
#4810=FACE_OUTER_BOUND('',#4800,.T.);
#4820=ADVANCED_FACE('',(#4810),#4750,.F.);
#4830=CLOSED_SHELL('',(#2660,#2830,#3050,#3270,#3490,#3710,#3880,#4050,
#4170,#4340,#4460,#4580,#4700,#4820,#2440,#1220));
#4840=MANIFOLD_SOLID_BREP('',#4830);
#4850=CARTESIAN_POINT('',(0.,0.,0.));
#4860=DIRECTION('',(0.,0.,1.));
#4870=DIRECTION('',(1.,0.,0.));
#4880=AXIS2_PLACEMENT_3D('',#4850,#4860,#4870);
#4890=APPLICATION_CONTEXT(' ');
#4900=APPLICATION_PROTOCOL_DEFINITION(' ','automotive_design',1998,#4890
);
#4910=PRODUCT_CONTEXT('',#4890,'mechanical');
#4920=PRODUCT_DEFINITION_CONTEXT('part definition',#4890,'design');
#4930=PRODUCT(
'Seitenf\S\|hrungsprofil-Flach-MMS-55_48x10mm-schwarz-leitf\S\dhig_55.03
21.1_PX176293',
'Seitenf\S\|hrungsprofil-Flach-MMS-55_48x10mm-schwarz-leitf\S\dhig_55.03
21.1_PX176293','',(#4910));
#4940=PRODUCT_RELATED_PRODUCT_CATEGORY('part',' ',(#4930));
#4950=PRODUCT_DEFINITION_FORMATION_WITH_SPECIFIED_SOURCE('','',#4930,
.BOUGHT.);
#4960=PRODUCT_DEFINITION('',' ',#4950,#4920);
#4970=PRODUCT_DEFINITION_SHAPE('','',#4960);
#4980=DIMENSIONAL_EXPONENTS(1.,0.,0.,0.,0.,0.,0.);
#4990=DIMENSIONAL_EXPONENTS(0.,0.,0.,0.,0.,0.,0.);
#5000=DIMENSIONAL_EXPONENTS(0.,0.,0.,0.,0.,0.,0.);
#5010=(LENGTH_UNIT() NAMED_UNIT(*) SI_UNIT(.MILLI.,.METRE.));
#5020=(NAMED_UNIT(*) PLANE_ANGLE_UNIT() SI_UNIT($,.RADIAN.));
#5030=(NAMED_UNIT(*) SI_UNIT($,.STERADIAN.) SOLID_ANGLE_UNIT());
#5040=(GEOMETRIC_REPRESENTATION_CONTEXT(3) 
GLOBAL_UNCERTAINTY_ASSIGNED_CONTEXT((#5050)) 
GLOBAL_UNIT_ASSIGNED_CONTEXT((#5010,#5020,#5030)) REPRESENTATION_CONTEXT
('',''));
#5050=UNCERTAINTY_MEASURE_WITH_UNIT(LENGTH_MEASURE(1.E-6),#5010,
'distance_accuracy_value','maximum gap value');
#5060=ADVANCED_BREP_SHAPE_REPRESENTATION('',(#4880,#4840),#5040);
#5070=SHAPE_DEFINITION_REPRESENTATION(#4970,#5060);
#5080=COLOUR_RGB('',0.0823529437184334,0.0862745121121407,
0.0980392247438431);
#5090=FILL_AREA_STYLE_COLOUR('',#5080);
#5100=FILL_AREA_STYLE('',(#5090));
#5110=SURFACE_STYLE_FILL_AREA(#5100);
#5120=SURFACE_SIDE_STYLE('',(#5110));
#5130=SURFACE_STYLE_USAGE(.BOTH.,#5120);
#5140=PRESENTATION_STYLE_ASSIGNMENT((#5130));
#5150=STYLED_ITEM('',(#5140),#4840);
#5160=DRAUGHTING_MODEL('',(#5150),#5040);
#5170=CARTESIAN_POINT('',(27.271506,48.042037,-280.));
#5180=DIRECTION('',(0.,0.,1.));
#5190=DIRECTION('',(1.,0.,0.));
#5200=AXIS2_PLACEMENT_3D('',#5170,#5180,#5190);
#5210=ITEM_DEFINED_TRANSFORMATION(
'Seitenf\S\|hrungsprofil-Flach-MMS-55_48x10mm-schwarz-leitf\S\dhig_55.03
21.1_PX176293','',#4880,#5200);
#5220=APPLICATION_CONTEXT(' ');
#5230=APPLICATION_PROTOCOL_DEFINITION(' ','automotive_design',1998,#5220
);
#5240=PRODUCT_CONTEXT('',#5220,'mechanical');
#5250=PRODUCT_DEFINITION_CONTEXT('part definition',#5220,'design');
#5260=PRODUCT(
'Seitenf\S\|hrungsprofil-Flach-MMS-55_48x10mm-schwarz-leitf\S\dhig_55.03
21.1_PX176293',
'Seitenf\S\|hrungsprofil-Flach-MMS-55_48x10mm-schwarz-leitf\S\dhig_55.03
21.1_PX176293','',(#5240));
#5270=PRODUCT_RELATED_PRODUCT_CATEGORY('part',' ',(#5260));
#5280=PRODUCT_DEFINITION_FORMATION_WITH_SPECIFIED_SOURCE('','',#5260,
.BOUGHT.);
#5290=PRODUCT_DEFINITION('',' ',#5280,#5250);
#5300=PRODUCT_DEFINITION_SHAPE('','',#5290);
#5310=DIMENSIONAL_EXPONENTS(1.,0.,0.,0.,0.,0.,0.);
#5320=DIMENSIONAL_EXPONENTS(0.,0.,0.,0.,0.,0.,0.);
#5330=DIMENSIONAL_EXPONENTS(0.,0.,0.,0.,0.,0.,0.);
#5340=(LENGTH_UNIT() NAMED_UNIT(*) SI_UNIT(.MILLI.,.METRE.));
#5350=(NAMED_UNIT(*) PLANE_ANGLE_UNIT() SI_UNIT($,.RADIAN.));
#5360=(NAMED_UNIT(*) SI_UNIT($,.STERADIAN.) SOLID_ANGLE_UNIT());
#5370=(GEOMETRIC_REPRESENTATION_CONTEXT(3) 
GLOBAL_UNCERTAINTY_ASSIGNED_CONTEXT((#5380)) 
GLOBAL_UNIT_ASSIGNED_CONTEXT((#5340,#5350,#5360)) REPRESENTATION_CONTEXT
('',''));
#5380=UNCERTAINTY_MEASURE_WITH_UNIT(LENGTH_MEASURE(1.E-6),#5340,
'distance_accuracy_value','maximum gap value');
#5390=SHAPE_REPRESENTATION('',(#4880,#5200),#5370);
#5400=SHAPE_DEFINITION_REPRESENTATION(#5300,#5390);
#5410=(REPRESENTATION_RELATIONSHIP('','',#5060,#5390) 
REPRESENTATION_RELATIONSHIP_WITH_TRANSFORMATION(#5210) 
SHAPE_REPRESENTATION_RELATIONSHIP());
#5420=NEXT_ASSEMBLY_USAGE_OCCURRENCE('1','',
'Seitenf\S\|hrungsprofil-Flach-MMS-55_48x10mm-schwarz-leitf\S\dhig_55.03
21.1_PX176293',#5290,#4960,'');
#5430=PRODUCT_DEFINITION_SHAPE('','',#5420);
#5440=CONTEXT_DEPENDENT_SHAPE_REPRESENTATION(#5410,#5430);
ENDSEC;
END-ISO-10303-21;
