ISO-10303-21;
HEADER;
FILE_DESCRIPTION(('Creo Elements/Direct Modeling STEP Export'),'2;1');
FILE_NAME(
'//KR-CAD2/PhoenixTemp/stefanie.mayer/Konvertierung/PX183651_0.stp',
'2022-12-12T13:52:17',(''),(''),
'PTC Creo Elements/Direct Modeling STEP processor for AP214 (Solid Model
)',
'PTC Creo Elements/Direct Modeling 19.0C  15-Aug-2015 (C) Parametric Tec
hnology GmbH','');
FILE_SCHEMA(('AUTOMOTIVE_DESIGN { 1 0 10303 214 1 1 1 1 }'));
ENDSEC;
DATA;
#10=CARTESIAN_POINT('',(28.3821715262429,28.3374558660007,
-45.9999999999999));
#20=DIRECTION('',(0.,-6.12303176911189E-17,-1.));
#30=DIRECTION('',(1.,0.,0.));
#40=AXIS2_PLACEMENT_3D('',#10,#20,#30);
#50=PLANE('',#40);
#60=CARTESIAN_POINT('',(17.8821715262429,14.8374558660007,
-45.9999999999999));
#70=DIRECTION('',(0.,0.,-1.));
#80=DIRECTION('',(-1.,0.,0.));
#90=AXIS2_PLACEMENT_3D('',#60,#70,#80);
#100=CIRCLE('',#90,14.);
#110=CARTESIAN_POINT('',(3.88217152624293,14.8374558660007,
-45.9999999999999));
#120=VERTEX_POINT('',#110);
#130=CARTESIAN_POINT('',(31.8821715262429,14.8374558660007,
-45.9999999999999));
#140=VERTEX_POINT('',#130);
#150=EDGE_CURVE('',#120,#140,#100,.T.);
#160=ORIENTED_EDGE('',*,*,#150,.T.);
#170=EDGE_CURVE('',#140,#120,#100,.T.);
#180=ORIENTED_EDGE('',*,*,#170,.T.);
#190=EDGE_LOOP('',(#180,#160));
#200=FACE_OUTER_BOUND('',#190,.T.);
#210=ADVANCED_FACE('',(#200),#50,.T.);
#220=CARTESIAN_POINT('',(17.8821715262429,14.8374558660007,
-45.9999999999999));
#230=DIRECTION('',(0.,0.,1.));
#240=DIRECTION('',(1.,0.,0.));
#250=AXIS2_PLACEMENT_3D('',#220,#230,#240);
#260=CONICAL_SURFACE('',#250,14.,0.785398163397448);
#270=CARTESIAN_POINT('',(3.88217152624293,14.8374558660007,
-45.9999999999999));
#280=DIRECTION('',(-0.707106781186548,8.97195690676443E-17,
0.707106781186548));
#290=VECTOR('',#280,19.7989898732233);
#300=LINE('',#270,#290);
#310=CARTESIAN_POINT('',(2.88217152624293,14.8374558660007,
-44.9999999999999));
#320=VERTEX_POINT('',#310);
#330=EDGE_CURVE('',#120,#320,#300,.T.);
#340=ORIENTED_EDGE('',*,*,#330,.F.);
#350=CARTESIAN_POINT('',(17.8821715262429,14.8374558660007,
-44.9999999999999));
#360=DIRECTION('',(0.,0.,-1.));
#370=DIRECTION('',(-1.,0.,0.));
#380=AXIS2_PLACEMENT_3D('',#350,#360,#370);
#390=CIRCLE('',#380,15.);
#400=CARTESIAN_POINT('',(32.8821715262429,14.8374558660007,
-44.9999999999999));
#410=VERTEX_POINT('',#400);
#420=EDGE_CURVE('',#410,#320,#390,.T.);
#430=ORIENTED_EDGE('',*,*,#420,.T.);
#440=CARTESIAN_POINT('',(31.8821715262429,14.8374558660007,
-45.9999999999999));
#450=DIRECTION('',(0.707106781186548,0.,0.707106781186548));
#460=VECTOR('',#450,19.7989898732233);
#470=LINE('',#440,#460);
#480=EDGE_CURVE('',#140,#410,#470,.T.);
#490=ORIENTED_EDGE('',*,*,#480,.T.);
#500=ORIENTED_EDGE('',*,*,#170,.F.);
#510=EDGE_LOOP('',(#500,#490,#430,#340));
#520=FACE_OUTER_BOUND('',#510,.T.);
#530=ADVANCED_FACE('',(#520),#260,.T.);
#540=CARTESIAN_POINT('',(17.8821715262429,14.8374558660007,
-45.9999999999999));
#550=DIRECTION('',(0.,0.,1.));
#560=DIRECTION('',(1.,0.,0.));
#570=AXIS2_PLACEMENT_3D('',#540,#550,#560);
#580=CONICAL_SURFACE('',#570,14.,0.785398163397448);
#590=EDGE_CURVE('',#320,#410,#390,.T.);
#600=ORIENTED_EDGE('',*,*,#590,.T.);
#610=ORIENTED_EDGE('',*,*,#330,.T.);
#620=ORIENTED_EDGE('',*,*,#150,.F.);
#630=ORIENTED_EDGE('',*,*,#480,.F.);
#640=EDGE_LOOP('',(#630,#620,#610,#600));
#650=FACE_OUTER_BOUND('',#640,.T.);
#660=ADVANCED_FACE('',(#650),#580,.T.);
#670=CARTESIAN_POINT('',(12.6321715262425,14.8374558660007,54.));
#680=DIRECTION('',(0.,0.,-1.));
#690=DIRECTION('',(-1.,0.,0.));
#700=AXIS2_PLACEMENT_3D('',#670,#680,#690);
#710=PLANE('',#700);
#720=CARTESIAN_POINT('',(17.8821715262429,14.8374558660007,54.));
#730=DIRECTION('',(0.,0.,-1.));
#740=DIRECTION('',(-1.,0.,0.));
#750=AXIS2_PLACEMENT_3D('',#720,#730,#740);
#760=CIRCLE('',#750,14.);
#770=CARTESIAN_POINT('',(3.88217152624293,14.8374558660007,54.));
#780=VERTEX_POINT('',#770);
#790=CARTESIAN_POINT('',(31.8821715262429,14.8374558660007,54.));
#800=VERTEX_POINT('',#790);
#810=EDGE_CURVE('',#780,#800,#760,.T.);
#820=ORIENTED_EDGE('',*,*,#810,.F.);
#830=EDGE_CURVE('',#800,#780,#760,.T.);
#840=ORIENTED_EDGE('',*,*,#830,.F.);
#850=EDGE_LOOP('',(#840,#820));
#860=FACE_OUTER_BOUND('',#850,.T.);
#870=ADVANCED_FACE('',(#860),#710,.F.);
#880=CARTESIAN_POINT('',(17.8821715262429,14.8374558660007,54.));
#890=DIRECTION('',(0.,0.,-1.));
#900=DIRECTION('',(-1.,0.,0.));
#910=AXIS2_PLACEMENT_3D('',#880,#890,#900);
#920=CONICAL_SURFACE('',#910,14.,0.785398163397448);
#930=CARTESIAN_POINT('',(31.8821715262429,14.8374558660007,54.));
#940=DIRECTION('',(0.707106781186548,8.97195690676443E-17,
-0.707106781186548));
#950=VECTOR('',#940,19.7989898732233);
#960=LINE('',#930,#950);
#970=CARTESIAN_POINT('',(32.8821715262429,14.8374558660007,53.));
#980=VERTEX_POINT('',#970);
#990=EDGE_CURVE('',#800,#980,#960,.T.);
#1000=ORIENTED_EDGE('',*,*,#990,.F.);
#1010=CARTESIAN_POINT('',(17.8821715262429,14.8374558660007,53.));
#1020=DIRECTION('',(0.,0.,-1.));
#1030=DIRECTION('',(-1.,0.,0.));
#1040=AXIS2_PLACEMENT_3D('',#1010,#1020,#1030);
#1050=CIRCLE('',#1040,15.);
#1060=CARTESIAN_POINT('',(2.88217152624293,14.8374558660007,53.));
#1070=VERTEX_POINT('',#1060);
#1080=EDGE_CURVE('',#980,#1070,#1050,.T.);
#1090=ORIENTED_EDGE('',*,*,#1080,.F.);
#1100=CARTESIAN_POINT('',(3.88217152624293,14.8374558660007,54.));
#1110=DIRECTION('',(-0.707106781186548,0.,-0.707106781186548));
#1120=VECTOR('',#1110,19.7989898732233);
#1130=LINE('',#1100,#1120);
#1140=EDGE_CURVE('',#780,#1070,#1130,.T.);
#1150=ORIENTED_EDGE('',*,*,#1140,.T.);
#1160=ORIENTED_EDGE('',*,*,#830,.T.);
#1170=EDGE_LOOP('',(#1160,#1150,#1090,#1000));
#1180=FACE_OUTER_BOUND('',#1170,.T.);
#1190=ADVANCED_FACE('',(#1180),#920,.T.);
#1200=CARTESIAN_POINT('',(17.8821715262429,14.8374558660007,54.));
#1210=DIRECTION('',(0.,0.,-1.));
#1220=DIRECTION('',(-1.,0.,0.));
#1230=AXIS2_PLACEMENT_3D('',#1200,#1210,#1220);
#1240=CONICAL_SURFACE('',#1230,14.,0.785398163397448);
#1250=EDGE_CURVE('',#1070,#980,#1050,.T.);
#1260=ORIENTED_EDGE('',*,*,#1250,.F.);
#1270=ORIENTED_EDGE('',*,*,#990,.T.);
#1280=ORIENTED_EDGE('',*,*,#810,.T.);
#1290=ORIENTED_EDGE('',*,*,#1140,.F.);
#1300=EDGE_LOOP('',(#1290,#1280,#1270,#1260));
#1310=FACE_OUTER_BOUND('',#1300,.T.);
#1320=ADVANCED_FACE('',(#1310),#1240,.T.);
#1330=CARTESIAN_POINT('',(17.8821715262429,14.8374558660007,-251.));
#1340=DIRECTION('',(0.,0.,-1.));
#1350=DIRECTION('',(-1.,0.,0.));
#1360=AXIS2_PLACEMENT_3D('',#1330,#1340,#1350);
#1370=CYLINDRICAL_SURFACE('',#1360,15.);
#1380=CARTESIAN_POINT('',(2.88217152624293,14.8374558660007,-251.));
#1390=DIRECTION('',(0.,0.,-1.));
#1400=VECTOR('',#1390,1.);
#1410=LINE('',#1380,#1400);
#1420=EDGE_CURVE('',#1070,#320,#1410,.T.);
#1430=ORIENTED_EDGE('',*,*,#1420,.T.);
#1440=ORIENTED_EDGE('',*,*,#1080,.T.);
#1450=CARTESIAN_POINT('',(32.8821715262429,14.8374558660007,-251.));
#1460=DIRECTION('',(0.,0.,-1.));
#1470=VECTOR('',#1460,1.);
#1480=LINE('',#1450,#1470);
#1490=EDGE_CURVE('',#980,#410,#1480,.T.);
#1500=ORIENTED_EDGE('',*,*,#1490,.F.);
#1510=ORIENTED_EDGE('',*,*,#420,.F.);
#1520=EDGE_LOOP('',(#1510,#1500,#1440,#1430));
#1530=FACE_OUTER_BOUND('',#1520,.T.);
#1540=ADVANCED_FACE('',(#1530),#1370,.T.);
#1550=CARTESIAN_POINT('',(17.8821715262429,14.8374558660007,-251.));
#1560=DIRECTION('',(0.,0.,-1.));
#1570=DIRECTION('',(-1.,0.,0.));
#1580=AXIS2_PLACEMENT_3D('',#1550,#1560,#1570);
#1590=CYLINDRICAL_SURFACE('',#1580,15.);
#1600=ORIENTED_EDGE('',*,*,#590,.F.);
#1610=ORIENTED_EDGE('',*,*,#1490,.T.);
#1620=ORIENTED_EDGE('',*,*,#1250,.T.);
#1630=ORIENTED_EDGE('',*,*,#1420,.F.);
#1640=EDGE_LOOP('',(#1630,#1620,#1610,#1600));
#1650=FACE_OUTER_BOUND('',#1640,.T.);
#1660=ADVANCED_FACE('',(#1650),#1590,.T.);
#1670=CLOSED_SHELL('',(#1540,#1660,#870,#1190,#1320,#210,#530,#660));
#1680=MANIFOLD_SOLID_BREP('',#1670);
#1690=CARTESIAN_POINT('',(0.,0.,0.));
#1700=DIRECTION('',(0.,0.,1.));
#1710=DIRECTION('',(1.,0.,0.));
#1720=AXIS2_PLACEMENT_3D('',#1690,#1700,#1710);
#1730=APPLICATION_CONTEXT(' ');
#1740=APPLICATION_PROTOCOL_DEFINITION(' ','automotive_design',1998,#1730
);
#1750=PRODUCT_CONTEXT('',#1730,'mechanical');
#1760=PRODUCT_DEFINITION_CONTEXT('part definition',#1730,'design');
#1770=PRODUCT('Achse_\S\X30_12888_PX183651',
'Achse_\S\X30_12888_PX183651','',(#1750));
#1780=PRODUCT_RELATED_PRODUCT_CATEGORY('part',' ',(#1770));
#1790=PRODUCT_DEFINITION_FORMATION_WITH_SPECIFIED_SOURCE('','',#1770,
.BOUGHT.);
#1800=PRODUCT_DEFINITION('',' ',#1790,#1760);
#1810=PRODUCT_DEFINITION_SHAPE('','',#1800);
#1820=DIMENSIONAL_EXPONENTS(1.,0.,0.,0.,0.,0.,0.);
#1830=DIMENSIONAL_EXPONENTS(0.,0.,0.,0.,0.,0.,0.);
#1840=DIMENSIONAL_EXPONENTS(0.,0.,0.,0.,0.,0.,0.);
#1850=(LENGTH_UNIT() NAMED_UNIT(*) SI_UNIT(.MILLI.,.METRE.));
#1860=(NAMED_UNIT(*) PLANE_ANGLE_UNIT() SI_UNIT($,.RADIAN.));
#1870=(NAMED_UNIT(*) SI_UNIT($,.STERADIAN.) SOLID_ANGLE_UNIT());
#1880=(GEOMETRIC_REPRESENTATION_CONTEXT(3) 
GLOBAL_UNCERTAINTY_ASSIGNED_CONTEXT((#1890)) 
GLOBAL_UNIT_ASSIGNED_CONTEXT((#1850,#1860,#1870)) REPRESENTATION_CONTEXT
('',''));
#1890=UNCERTAINTY_MEASURE_WITH_UNIT(LENGTH_MEASURE(1.E-6),#1850,
'distance_accuracy_value','maximum gap value');
#1900=ADVANCED_BREP_SHAPE_REPRESENTATION('',(#1720,#1680),#1880);
#1910=SHAPE_DEFINITION_REPRESENTATION(#1810,#1900);
#1920=COLOUR_RGB('',0.400000035762787,0.48235297203064,0.603921592235565
);
#1930=FILL_AREA_STYLE_COLOUR('',#1920);
#1940=FILL_AREA_STYLE('',(#1930));
#1950=SURFACE_STYLE_FILL_AREA(#1940);
#1960=SURFACE_SIDE_STYLE('',(#1950));
#1970=SURFACE_STYLE_USAGE(.BOTH.,#1960);
#1980=PRESENTATION_STYLE_ASSIGNMENT((#1970));
#1990=STYLED_ITEM('',(#1980),#1680);
#2000=DRAUGHTING_MODEL('',(#1990),#1880);
ENDSEC;
END-ISO-10303-21;
