ISO-10303-21;
HEADER;
FILE_DESCRIPTION(('Creo Elements/Direct Modeling STEP Export'),'2;1');
FILE_NAME(
'//KR-CAD2/PhoenixTemp/stefanie.mayer/Konvertierung/PX183549_0.stp',
'2022-12-12T13:54:43',(''),(''),
'PTC Creo Elements/Direct Modeling STEP processor for AP214 (Solid Model
)',
'PTC Creo Elements/Direct Modeling 19.0C  15-Aug-2015 (C) Parametric Tec
hnology GmbH','');
FILE_SCHEMA(('AUTOMOTIVE_DESIGN { 1 0 10303 214 1 1 1 1 }'));
ENDSEC;
DATA;
#10=CARTESIAN_POINT('',(28.3821715262429,28.3374558660007,
-45.9999999999999));
#20=DIRECTION('',(0.,-6.12303176911189E-17,-1.));
#30=DIRECTION('',(1.,0.,0.));
#40=AXIS2_PLACEMENT_3D('',#10,#20,#30);
#50=PLANE('',#40);
#60=CARTESIAN_POINT('',(17.8821715262429,14.8374558660007,
-45.9999999999999));
#70=DIRECTION('',(0.,0.,-1.));
#80=DIRECTION('',(-1.,0.,0.));
#90=AXIS2_PLACEMENT_3D('',#60,#70,#80);
#100=CIRCLE('',#90,5.);
#110=CARTESIAN_POINT('',(12.8821715262429,14.8374558660007,
-45.9999999999999));
#120=VERTEX_POINT('',#110);
#130=CARTESIAN_POINT('',(22.8821715262429,14.8374558660007,
-45.9999999999999));
#140=VERTEX_POINT('',#130);
#150=EDGE_CURVE('',#120,#140,#100,.T.);
#160=ORIENTED_EDGE('',*,*,#150,.T.);
#170=EDGE_CURVE('',#140,#120,#100,.T.);
#180=ORIENTED_EDGE('',*,*,#170,.T.);
#190=EDGE_LOOP('',(#180,#160));
#200=FACE_OUTER_BOUND('',#190,.T.);
#210=ADVANCED_FACE('',(#200),#50,.T.);
#220=COLOUR_RGB('',0.400000035762787,0.48235297203064,0.603921592235565)
;
#230=FILL_AREA_STYLE_COLOUR('',#220);
#240=FILL_AREA_STYLE('',(#230));
#250=SURFACE_STYLE_FILL_AREA(#240);
#260=SURFACE_SIDE_STYLE('',(#250));
#270=SURFACE_STYLE_USAGE(.BOTH.,#260);
#280=PRESENTATION_STYLE_ASSIGNMENT((#270));
#290=CARTESIAN_POINT('',(17.8821715262429,14.8374558660007,
-45.9999999999999));
#300=DIRECTION('',(0.,0.,1.));
#310=DIRECTION('',(1.,0.,0.));
#320=AXIS2_PLACEMENT_3D('',#290,#300,#310);
#330=CONICAL_SURFACE('',#320,5.,0.785398163397448);
#340=CARTESIAN_POINT('',(12.8821715262429,14.8374558660007,
-45.9999999999999));
#350=DIRECTION('',(-0.707106781186548,0.,0.707106781186548));
#360=VECTOR('',#350,7.07106781186547);
#370=LINE('',#340,#360);
#380=CARTESIAN_POINT('',(11.8821715262429,14.8374558660007,
-44.9999999999999));
#390=VERTEX_POINT('',#380);
#400=EDGE_CURVE('',#120,#390,#370,.T.);
#410=ORIENTED_EDGE('',*,*,#400,.F.);
#420=CARTESIAN_POINT('',(17.8821715262429,14.8374558660007,
-44.9999999999999));
#430=DIRECTION('',(0.,0.,-1.));
#440=DIRECTION('',(-1.,0.,0.));
#450=AXIS2_PLACEMENT_3D('',#420,#430,#440);
#460=CIRCLE('',#450,6.);
#470=CARTESIAN_POINT('',(23.8821715262429,14.8374558660007,
-44.9999999999999));
#480=VERTEX_POINT('',#470);
#490=EDGE_CURVE('',#480,#390,#460,.T.);
#500=ORIENTED_EDGE('',*,*,#490,.T.);
#510=CARTESIAN_POINT('',(22.8821715262429,14.8374558660007,
-45.9999999999999));
#520=DIRECTION('',(0.707106781186548,2.51214793389404E-16,
0.707106781186548));
#530=VECTOR('',#520,7.07106781186547);
#540=LINE('',#510,#530);
#550=EDGE_CURVE('',#140,#480,#540,.T.);
#560=ORIENTED_EDGE('',*,*,#550,.T.);
#570=ORIENTED_EDGE('',*,*,#170,.F.);
#580=EDGE_LOOP('',(#570,#560,#500,#410));
#590=FACE_OUTER_BOUND('',#580,.T.);
#600=ADVANCED_FACE('',(#590),#330,.T.);
#610=COLOUR_RGB('',0.400000035762787,0.48235297203064,0.603921592235565)
;
#620=FILL_AREA_STYLE_COLOUR('',#610);
#630=FILL_AREA_STYLE('',(#620));
#640=SURFACE_STYLE_FILL_AREA(#630);
#650=SURFACE_SIDE_STYLE('',(#640));
#660=SURFACE_STYLE_USAGE(.BOTH.,#650);
#670=PRESENTATION_STYLE_ASSIGNMENT((#660));
#680=CARTESIAN_POINT('',(17.8821715262429,14.8374558660007,
-45.9999999999999));
#690=DIRECTION('',(0.,0.,1.));
#700=DIRECTION('',(1.,0.,0.));
#710=AXIS2_PLACEMENT_3D('',#680,#690,#700);
#720=CONICAL_SURFACE('',#710,5.,0.785398163397448);
#730=EDGE_CURVE('',#390,#480,#460,.T.);
#740=ORIENTED_EDGE('',*,*,#730,.T.);
#750=ORIENTED_EDGE('',*,*,#400,.T.);
#760=ORIENTED_EDGE('',*,*,#150,.F.);
#770=ORIENTED_EDGE('',*,*,#550,.F.);
#780=EDGE_LOOP('',(#770,#760,#750,#740));
#790=FACE_OUTER_BOUND('',#780,.T.);
#800=ADVANCED_FACE('',(#790),#720,.T.);
#810=COLOUR_RGB('',0.400000035762787,0.48235297203064,0.603921592235565)
;
#820=FILL_AREA_STYLE_COLOUR('',#810);
#830=FILL_AREA_STYLE('',(#820));
#840=SURFACE_STYLE_FILL_AREA(#830);
#850=SURFACE_SIDE_STYLE('',(#840));
#860=SURFACE_STYLE_USAGE(.BOTH.,#850);
#870=PRESENTATION_STYLE_ASSIGNMENT((#860));
#880=CARTESIAN_POINT('',(12.6321715262425,14.8374558660007,54.));
#890=DIRECTION('',(0.,0.,-1.));
#900=DIRECTION('',(-1.,0.,0.));
#910=AXIS2_PLACEMENT_3D('',#880,#890,#900);
#920=PLANE('',#910);
#930=CARTESIAN_POINT('',(17.8821715262429,14.8374558660007,54.));
#940=DIRECTION('',(0.,0.,-1.));
#950=DIRECTION('',(-1.,0.,0.));
#960=AXIS2_PLACEMENT_3D('',#930,#940,#950);
#970=CIRCLE('',#960,5.);
#980=CARTESIAN_POINT('',(12.8821715262429,14.8374558660007,54.));
#990=VERTEX_POINT('',#980);
#1000=CARTESIAN_POINT('',(22.8821715262429,14.8374558660007,54.));
#1010=VERTEX_POINT('',#1000);
#1020=EDGE_CURVE('',#990,#1010,#970,.T.);
#1030=ORIENTED_EDGE('',*,*,#1020,.F.);
#1040=EDGE_CURVE('',#1010,#990,#970,.T.);
#1050=ORIENTED_EDGE('',*,*,#1040,.F.);
#1060=EDGE_LOOP('',(#1050,#1030));
#1070=FACE_OUTER_BOUND('',#1060,.T.);
#1080=ADVANCED_FACE('',(#1070),#920,.F.);
#1090=COLOUR_RGB('',0.400000035762787,0.48235297203064,0.603921592235565
);
#1100=FILL_AREA_STYLE_COLOUR('',#1090);
#1110=FILL_AREA_STYLE('',(#1100));
#1120=SURFACE_STYLE_FILL_AREA(#1110);
#1130=SURFACE_SIDE_STYLE('',(#1120));
#1140=SURFACE_STYLE_USAGE(.BOTH.,#1130);
#1150=PRESENTATION_STYLE_ASSIGNMENT((#1140));
#1160=CARTESIAN_POINT('',(17.8821715262429,14.8374558660007,54.));
#1170=DIRECTION('',(0.,0.,-1.));
#1180=DIRECTION('',(-1.,0.,0.));
#1190=AXIS2_PLACEMENT_3D('',#1160,#1170,#1180);
#1200=CONICAL_SURFACE('',#1190,5.,0.785398163397448);
#1210=CARTESIAN_POINT('',(22.8821715262429,14.8374558660007,54.));
#1220=DIRECTION('',(0.707106781186548,0.,-0.707106781186548));
#1230=VECTOR('',#1220,7.07106781186547);
#1240=LINE('',#1210,#1230);
#1250=CARTESIAN_POINT('',(23.8821715262429,14.8374558660007,53.));
#1260=VERTEX_POINT('',#1250);
#1270=EDGE_CURVE('',#1010,#1260,#1240,.T.);
#1280=ORIENTED_EDGE('',*,*,#1270,.F.);
#1290=CARTESIAN_POINT('',(17.8821715262429,14.8374558660007,53.));
#1300=DIRECTION('',(0.,0.,-1.));
#1310=DIRECTION('',(-1.,0.,0.));
#1320=AXIS2_PLACEMENT_3D('',#1290,#1300,#1310);
#1330=CIRCLE('',#1320,6.);
#1340=CARTESIAN_POINT('',(11.8821715262429,14.8374558660007,53.));
#1350=VERTEX_POINT('',#1340);
#1360=EDGE_CURVE('',#1260,#1350,#1330,.T.);
#1370=ORIENTED_EDGE('',*,*,#1360,.F.);
#1380=CARTESIAN_POINT('',(12.8821715262429,14.8374558660007,54.));
#1390=DIRECTION('',(-0.707106781186548,2.51214793389404E-16,
-0.707106781186548));
#1400=VECTOR('',#1390,7.07106781186547);
#1410=LINE('',#1380,#1400);
#1420=EDGE_CURVE('',#990,#1350,#1410,.T.);
#1430=ORIENTED_EDGE('',*,*,#1420,.T.);
#1440=ORIENTED_EDGE('',*,*,#1040,.T.);
#1450=EDGE_LOOP('',(#1440,#1430,#1370,#1280));
#1460=FACE_OUTER_BOUND('',#1450,.T.);
#1470=ADVANCED_FACE('',(#1460),#1200,.T.);
#1480=COLOUR_RGB('',0.400000035762787,0.48235297203064,0.603921592235565
);
#1490=FILL_AREA_STYLE_COLOUR('',#1480);
#1500=FILL_AREA_STYLE('',(#1490));
#1510=SURFACE_STYLE_FILL_AREA(#1500);
#1520=SURFACE_SIDE_STYLE('',(#1510));
#1530=SURFACE_STYLE_USAGE(.BOTH.,#1520);
#1540=PRESENTATION_STYLE_ASSIGNMENT((#1530));
#1550=CARTESIAN_POINT('',(17.8821715262429,14.8374558660007,54.));
#1560=DIRECTION('',(0.,0.,-1.));
#1570=DIRECTION('',(-1.,0.,0.));
#1580=AXIS2_PLACEMENT_3D('',#1550,#1560,#1570);
#1590=CONICAL_SURFACE('',#1580,5.,0.785398163397448);
#1600=EDGE_CURVE('',#1350,#1260,#1330,.T.);
#1610=ORIENTED_EDGE('',*,*,#1600,.F.);
#1620=ORIENTED_EDGE('',*,*,#1270,.T.);
#1630=ORIENTED_EDGE('',*,*,#1020,.T.);
#1640=ORIENTED_EDGE('',*,*,#1420,.F.);
#1650=EDGE_LOOP('',(#1640,#1630,#1620,#1610));
#1660=FACE_OUTER_BOUND('',#1650,.T.);
#1670=ADVANCED_FACE('',(#1660),#1590,.T.);
#1680=COLOUR_RGB('',0.400000035762787,0.48235297203064,0.603921592235565
);
#1690=FILL_AREA_STYLE_COLOUR('',#1680);
#1700=FILL_AREA_STYLE('',(#1690));
#1710=SURFACE_STYLE_FILL_AREA(#1700);
#1720=SURFACE_SIDE_STYLE('',(#1710));
#1730=SURFACE_STYLE_USAGE(.BOTH.,#1720);
#1740=PRESENTATION_STYLE_ASSIGNMENT((#1730));
#1750=CARTESIAN_POINT('',(17.8821715262429,14.8374558660007,-251.));
#1760=DIRECTION('',(0.,0.,-1.));
#1770=DIRECTION('',(-1.,0.,0.));
#1780=AXIS2_PLACEMENT_3D('',#1750,#1760,#1770);
#1790=CYLINDRICAL_SURFACE('',#1780,6.);
#1800=CARTESIAN_POINT('',(11.8821715262429,14.8374558660007,-251.));
#1810=DIRECTION('',(0.,0.,-1.));
#1820=VECTOR('',#1810,1.);
#1830=LINE('',#1800,#1820);
#1840=EDGE_CURVE('',#1350,#390,#1830,.T.);
#1850=ORIENTED_EDGE('',*,*,#1840,.T.);
#1860=ORIENTED_EDGE('',*,*,#1360,.T.);
#1870=CARTESIAN_POINT('',(23.8821715262429,14.8374558660007,-251.));
#1880=DIRECTION('',(0.,0.,-1.));
#1890=VECTOR('',#1880,1.);
#1900=LINE('',#1870,#1890);
#1910=EDGE_CURVE('',#1260,#480,#1900,.T.);
#1920=ORIENTED_EDGE('',*,*,#1910,.F.);
#1930=ORIENTED_EDGE('',*,*,#490,.F.);
#1940=EDGE_LOOP('',(#1930,#1920,#1860,#1850));
#1950=FACE_OUTER_BOUND('',#1940,.T.);
#1960=ADVANCED_FACE('',(#1950),#1790,.T.);
#1970=COLOUR_RGB('',0.400000035762787,0.48235297203064,0.603921592235565
);
#1980=FILL_AREA_STYLE_COLOUR('',#1970);
#1990=FILL_AREA_STYLE('',(#1980));
#2000=SURFACE_STYLE_FILL_AREA(#1990);
#2010=SURFACE_SIDE_STYLE('',(#2000));
#2020=SURFACE_STYLE_USAGE(.BOTH.,#2010);
#2030=PRESENTATION_STYLE_ASSIGNMENT((#2020));
#2040=CARTESIAN_POINT('',(17.8821715262429,14.8374558660007,-251.));
#2050=DIRECTION('',(0.,0.,-1.));
#2060=DIRECTION('',(-1.,0.,0.));
#2070=AXIS2_PLACEMENT_3D('',#2040,#2050,#2060);
#2080=CYLINDRICAL_SURFACE('',#2070,6.);
#2090=ORIENTED_EDGE('',*,*,#730,.F.);
#2100=ORIENTED_EDGE('',*,*,#1910,.T.);
#2110=ORIENTED_EDGE('',*,*,#1600,.T.);
#2120=ORIENTED_EDGE('',*,*,#1840,.F.);
#2130=EDGE_LOOP('',(#2120,#2110,#2100,#2090));
#2140=FACE_OUTER_BOUND('',#2130,.T.);
#2150=ADVANCED_FACE('',(#2140),#2080,.T.);
#2160=COLOUR_RGB('',0.400000035762787,0.48235297203064,0.603921592235565
);
#2170=FILL_AREA_STYLE_COLOUR('',#2160);
#2180=FILL_AREA_STYLE('',(#2170));
#2190=SURFACE_STYLE_FILL_AREA(#2180);
#2200=SURFACE_SIDE_STYLE('',(#2190));
#2210=SURFACE_STYLE_USAGE(.BOTH.,#2200);
#2220=PRESENTATION_STYLE_ASSIGNMENT((#2210));
#2230=CLOSED_SHELL('',(#1960,#2150,#1080,#1470,#1670,#210,#600,#800));
#2240=MANIFOLD_SOLID_BREP('',#2230);
#2250=CARTESIAN_POINT('',(0.,0.,0.));
#2260=DIRECTION('',(0.,0.,1.));
#2270=DIRECTION('',(1.,0.,0.));
#2280=AXIS2_PLACEMENT_3D('',#2250,#2260,#2270);
#2290=APPLICATION_CONTEXT(' ');
#2300=APPLICATION_PROTOCOL_DEFINITION(' ','automotive_design',1998,#2290
);
#2310=PRODUCT_CONTEXT('',#2290,'mechanical');
#2320=PRODUCT_DEFINITION_CONTEXT('part definition',#2290,'design');
#2330=PRODUCT('Achse_\S\X12_202773_PX183549',
'Achse_\S\X12_202773_PX183549','',(#2310));
#2340=PRODUCT_RELATED_PRODUCT_CATEGORY('part',' ',(#2330));
#2350=PRODUCT_DEFINITION_FORMATION_WITH_SPECIFIED_SOURCE('','',#2330,
.BOUGHT.);
#2360=PRODUCT_DEFINITION('',' ',#2350,#2320);
#2370=PRODUCT_DEFINITION_SHAPE('','',#2360);
#2380=DIMENSIONAL_EXPONENTS(1.,0.,0.,0.,0.,0.,0.);
#2390=DIMENSIONAL_EXPONENTS(0.,0.,0.,0.,0.,0.,0.);
#2400=DIMENSIONAL_EXPONENTS(0.,0.,0.,0.,0.,0.,0.);
#2410=(LENGTH_UNIT() NAMED_UNIT(*) SI_UNIT(.MILLI.,.METRE.));
#2420=(NAMED_UNIT(*) PLANE_ANGLE_UNIT() SI_UNIT($,.RADIAN.));
#2430=(NAMED_UNIT(*) SI_UNIT($,.STERADIAN.) SOLID_ANGLE_UNIT());
#2440=(GEOMETRIC_REPRESENTATION_CONTEXT(3) 
GLOBAL_UNCERTAINTY_ASSIGNED_CONTEXT((#2450)) 
GLOBAL_UNIT_ASSIGNED_CONTEXT((#2410,#2420,#2430)) REPRESENTATION_CONTEXT
('',''));
#2450=UNCERTAINTY_MEASURE_WITH_UNIT(LENGTH_MEASURE(1.E-6),#2410,
'distance_accuracy_value','maximum gap value');
#2460=ADVANCED_BREP_SHAPE_REPRESENTATION('',(#2280,#2240),#2440);
#2470=SHAPE_DEFINITION_REPRESENTATION(#2370,#2460);
#2480=COLOUR_RGB('',0.400000035762787,0.48235297203064,0.603921592235565
);
#2490=FILL_AREA_STYLE_COLOUR('',#2480);
#2500=FILL_AREA_STYLE('',(#2490));
#2510=SURFACE_STYLE_FILL_AREA(#2500);
#2520=SURFACE_SIDE_STYLE('',(#2510));
#2530=SURFACE_STYLE_USAGE(.BOTH.,#2520);
#2540=PRESENTATION_STYLE_ASSIGNMENT((#2530));
#2550=STYLED_ITEM('',(#2540),#2240);
#2560=OVER_RIDING_STYLED_ITEM('',(#280),#210,#2550);
#2570=OVER_RIDING_STYLED_ITEM('',(#670),#600,#2550);
#2580=OVER_RIDING_STYLED_ITEM('',(#870),#800,#2550);
#2590=OVER_RIDING_STYLED_ITEM('',(#1150),#1080,#2550);
#2600=OVER_RIDING_STYLED_ITEM('',(#1540),#1470,#2550);
#2610=OVER_RIDING_STYLED_ITEM('',(#1740),#1670,#2550);
#2620=OVER_RIDING_STYLED_ITEM('',(#2030),#1960,#2550);
#2630=OVER_RIDING_STYLED_ITEM('',(#2220),#2150,#2550);
#2640=DRAUGHTING_MODEL('',(#2550,#2560,#2570,#2580,#2590,#2600,#2610,
#2620,#2630),#2440);
ENDSEC;
END-ISO-10303-21;
